Song name
# A B C D E F G H I J K L M N O P Q R S T U V W X Y Z

Boys Like Girls - Love Drunk Acoustic tab

YO! so i thought i'd do a tab of love drunk (acoustic) cause i wanted to make a cover. 
the link is   if you want to see it. im pretty sure this is correct...

CAPO 1

e --> C
B --> G
G --> E
D --> C
A --> G
E --> C

Both guitar 1 and 2 are this tuning!!!


Intro:

Guitar 2:
keep doing this until guitar 1 comes in)
|----00000000-----|
|-----------------|
|-----------------|
|-----------------|
|-----------------|
|-----------------|

Guitar 1:
|-0---0---0----0---0---0-0--------------------|
|-0---0---0----0---0---0-0--------------------|
|-0---7---5----0---7---5/7--------------------|
|-0---0---0----0---0---0-0--------------------|
|-0---7---5----0---7---5/7--------------------|
|-0---7---5----0---7---5/7--------------------|

Guitar 2:
|-------0---0---0---------------------|
|-----0---0---0---0-------------------|
|-0h1---------------------------------|x2
|-------------------------------------|
|-------------------------------------|
|-------------------------------------|

Verse:

Guitar 1: [palm mute]
(Top down in the summer sun...)
|-0---0-0---0---0------------------------|
|-0---0-0---0---0------------------------|
|-0---7/5---3---5------------------------|
|-0---0-0---0---0------------------------|
|-0---7/5---2---5------------------------|
|-0---7/5---2---5------------------------|

(The sky was burning up like fireworks...)
|-0---0-0---0---0------------------------|
|-0---0-0---0---0------------------------|
|-0---7/5---3---7------------------------|
|-0---0-0---0---0------------------------|
|-0---7/5---2---7------------------------|
|-0---7/5---2---7------------------------|

Guitar 2:
(The sky was burning up like fireworks...)
|-12------12-------12--------|
|---12-12----12-12----12-----|
|----------------------------|x6
|----------------------------|
|----------------------------|
|----------------------------|

|--12-12-12-12-12-12-12-12-12------|
|----------------------------------|
|----------------------------------|
|----------------------------------|
|----------------------------------|
|----------------------------------|

Chorus:

Guitar 1:
(I used to be love drunk.....don't call me crying, say hello to goodbye)
|-0---0---0---0----------|
|-0---0---0---0----------|
|-8---5---0---7----------|
|-0---0---0---0----------|x2
|-9---5---0---7----------|
|-9---5---0---7----------|

(Cause just one sip....sick)
|-0--0--0--0-------------|
|-0--0--0--0-------------|
|-5--7--8--7-------------|
|-0--0--0--0-------------|
|-5--7--9--7-------------|
|-5--7--9--7-------------|

(I used to be love drunk...)
|-0---0---0---0----------|
|-0---0---0---0----------|
|-8---5---0---7----------|
|-0---0---0---0----------|
|-9---5---0---7----------|
|-9---5---0---7----------|

Part after "now its over"
|-0--0--0--0----------|
|-0--0--0--0----------|
|-0--7--5--7----------|
|-0--0--0--0----------|
|-0--7--5--7----------|
|-0--7--5--7----------|

Guitar 2:
(I used to be love drunk.....don't call me crying, say hello to goodbye)
|-7777777-9-7777777-9-----------------------------------|
|---------------------9999999-10-77777777---------------|
|-------------------------------------------------------|
|-------------------------------------------------------|x2
|-------------------------------------------------------|
|-------------------------------------------------------|

(Cause just one sip....sick
|----------------------------------------|
|-55555555-77777777-99999999-77777777----|
|----------------------------------------|
|----------------------------------------|
|----------------------------------------|
|----------------------------------------|

(I used to be love drunk...)
|-7777777-9-7777777-9-----------------------------------|
|---------------------9999999-7-------------------------|
|-------------------------------------------------------|
|-------------------------------------------------------|
|-------------------------------------------------------|
|-------------------------------------------------------|

(But now its over)
|-------0---0---0---------------------|
|-----0---0---0---0-------------------|
|-0h1---------------------------------|x2
|-------------------------------------|
|-------------------------------------|
|-------------------------------------|

Verse 2:

Guitar 1
Same as verse 1

Guitar 2:
(Hot sweat and blurry eyes....)
|-12------12-------12--------|
|---12-12----12-12----12-----|
|----------------------------|x7
|----------------------------|
|----------------------------|
|----------------------------|

|-12-------------------------|
|----12-12-12---9h10h9-------|
|----------------------------|
|----------------------------|
|----------------------------|
|----------------------------|

|-12------12-------12--------|
|---12-12----12-12----12-----|
|----------------------------|x3
|----------------------------|
|----------------------------|
|----------------------------|

|-12-------------------------|
|----12-12-12---9h10h9-------|
|----------------------------|
|----------------------------|
|----------------------------|
|----------------------------|

|-12------12-------12--------|
|---12-12----12-12----12-----|
|----------------------------|x2
|----------------------------|
|----------------------------|
|----------------------------|

|--12-12-12-12-12-12-12-12-12------|
|----------------------------------|
|----------------------------------|
|----------------------------------|
|----------------------------------|
|----------------------------------|

Chorus:

(I used to be love drunk.....don't call me crying, say hello to goodbye)
|-0---0---0---0----------|
|-0---0---0---0----------|
|-8---5---0---7----------|
|-0---0---0---0----------|x2
|-9---5---0---7----------|
|-9---5---0---7----------|

(Cause just one sip....sick)
|-0--0--0--0-------------|
|-0--0--0--0-------------|
|-5--7--8--7-------------|
|-0--0--0--0-------------|
|-5--7--9--7-------------|
|-5--7--9--7-------------|

(I used to be love drunk...)
|-0---0---0---0----------|
|-0---0---0---0----------|
|-8---5---0---7----------|
|-0---0---0---0----------|
|-9---5---0---7----------|
|-9---5---0---7----------|

(But now its over)
|-0--0--0--0----------|
|-0--0--0--0----------|
|-0--7--5--7----------|
|-0--0--0--0----------|
|-0--7--5--7----------|
|-0--7--5--7----------|

Guitar 2:
(I used to be love drunk.....don't call me crying, say hello to goodbye)
|-7777777-9-7777777-9-----------------------------------|
|---------------------9999999-10-77777777---------------|
|-------------------------------------------------------|
|-------------------------------------------------------|x2
|-------------------------------------------------------|
|-------------------------------------------------------|

(Cause just one sip....sick
|----------------------------------------|
|-55555555-77777777-99999999-77777777----|
|----------------------------------------|
|----------------------------------------|
|----------------------------------------|
|----------------------------------------|

(I used to be love drunk...)
|-7777777-9-7777777-9-----------------------------------|
|---------------------9999999-7-------------------------|
|-------------------------------------------------------|
|-------------------------------------------------------|
|-------------------------------------------------------|
|-------------------------------------------------------|

Bridge:

Guitar 1:
(All the time i wasted on you...didn't mean a thing to you)
|-0--0--0---------------|
|-0--0--0---------------|
|-5--0--7---------------|
|-0--0--0---------------|x2
|-5--0--7---------------|
|-5--0--7---------------|


(all the time i wasted on you...didn't mean a thing to you)
|---------------------------------------|
|--5-x14---7-x2---5-x8----4-x8----------|
|---------------------------------------|x2
|---------------------------------------|
|---------------------------------------|
|---------------------------------------|

Guitar 1:
(I used to be love drunk...but now i'm sober)
[single strum these]
|-0---0---0---0----------|
|-0---0---0---0----------|
|-8---5---0---7----------|
|-0---0---0---0----------|
|-9---5---0---7----------|
|-9---5---0---7----------|

***CHANGE TO CAPO 3

Chorus:

(I used to be love drunk.....don't call me crying, say hello to goodbye)
|-0---0---0---0----------|
|-0---0---0---0----------|
|-8---5---0---7----------|
|-0---0---0---0----------|x2
|-9---5---0---7----------|
|-9---5---0---7----------|

(Cause just one sip....sick)
|-0--0--0--0-------------|
|-0--0--0--0-------------|
|-5--7--8--7-------------|
|-0--0--0--0-------------|
|-5--7--9--7-------------|
|-5--7--9--7-------------|

(I used to be love drunk...but now it's over)
|-0---0---0---0----------|
|-0---0---0---0----------|
|-8---5---0---7----------|
|-0---0---0---0----------|
|-9---5---0---7----------|
|-9---5---0---7----------|

(But now its over)
|-0--0--0--0----------|
|-0--0--0--0----------|
|-0--7--5--7----------|
|-0--0--0--0----------|
|-0--7--5--7----------|
|-0--7--5--7----------|

Guitar 2:
(I used to be love drunk.....don't call me crying, say hello to goodbye)
|-7777777-9-7777777-9-----------------------------------|
|---------------------9999999-10-77777777---------------|
|-------------------------------------------------------|
|-------------------------------------------------------|x2
|-------------------------------------------------------|
|-------------------------------------------------------|

(Cause just one sip....sick
|----------------------------------------|
|-55555555-77777777-99999999-77777777----|
|----------------------------------------|
|----------------------------------------|
|----------------------------------------|
|----------------------------------------|

(I used to be love drunk...)
|-7777777-9-7777777-9-----------------------------------|
|---------------------9999999-77777777------------------|
|-------------------------------------------------------|
|-------------------------------------------------------|
|-------------------------------------------------------|
|-------------------------------------------------------|

Outro:
(Na na nas....)

Guitar 1:
|-0---0---0----0---0---0-0--------------------|
|-0---0---0----0---0---0-0--------------------|
|-0---7---5----0---7---5/7--------------------|
|-0---0---0----0---0---0-0--------------------|
|-0---7---5----0---7---5/7--------------------|
|-0---7---5----0---7---5/7--------------------|

Guitar 2:
|-------0---0---0---------------------|
|-----0---0---0---0-------------------|
|-0h1---------------------------------|x2
|-------------------------------------|
|-------------------------------------|
|-------------------------------------|

End on this for guitar 1
|-0-|
|-0-|
|-0-|
|-0-|
|-0-|
|-0-|

Guitar 2:
continue till song ends
|----00000000-----|
|-----------------|
|-----------------|
|-----------------|
|-----------------|
|-----------------|
Tap to rate this tab
 
# A B C D E F G H I J K L M N O P Q R S T U V W X Y Z