Song name
# A B C D E F G H I J K L M N O P Q R S T U V W X Y Z

Boys Like Girls - Two Is Better Than One tab

Two Is Better Than One
The open strings are at open C
this should be pretty much 100% perfect

	C
E|----------------------------------------------------------------------|
C|-----------0--------------0--------------0---------------0------------|
G|----0--------------0--------------0---------------0-------------------|
C|--------0--------------0--------------0---------------0---------------|
G|----------------------------------------------------------------------|
C|--0------------0---------------0---------------0----------------------|

E|----------------------------------------------------------------------|
C|-----------0--------------0--------------0---------------0------------|
G|----0--------------0--------------0---------------0-------------------|
C|--------0--------------0--------------0---------------0---------------|
G|----------------------------------------------------------------------|
C|--0------------0---------------0---------------0----------------------|
   I remember what you wore on the first day

Am
E|----------------------------------------------------------------------|
C|--------------0---------------0--------------0----------------0-------|
G|----------4---------------4---------------4---------------4-----------|
C|------4--------------4----------------4---------------4---------------|
G|--2--------------2----------------2--------------2--------------------|
C|----------------------------------------------------------------------|
   You came into my life and I thought hey

	F				G
E|----------------------------------------------------------------------|
C|--------------0---------------0--------------0-----------------0------|
G|----------0---------------0---------------4----------------4----------|
C|------5---------------5---------------7---------------7---------------|
G|-----------------------------------0--------------0-------------------|
C|--5--------------5----------------------------------------------------|
You know this could be something

E|----------------------------------------------------------------------|
C|-----------0--------------0--------------0---------------0------------|
G|----0--------------0--------------0---------------0-------------------|
C|--------0--------------0--------------0---------------0---------------|
G|----------------------------------------------------------------------|
C|--0------------0---------------0---------------0----------------------|

E|----------------------------------------------------------------------|
C|-----------0--------------0--------------0---------------0------------|
G|----0--------------0--------------0---------------0-------------------|
C|--------0--------------0--------------0---------------0---------------|
G|----------------------------------------------------------------------|
C|--0------------0---------------0---------------0----------------------|
	 ĎCause everything you do and words you say

E|----------------------------------------------------------------------|
C|--------------0---------------0--------------0----------------0-------|
G|----------4---------------4---------------4---------------4-----------|
C|------4--------------4----------------4---------------4---------------|
G|--2--------------2----------------2--------------2--------------------|
C|----------------------------------------------------------------------|
	   You know that it all takes my breath away

E|----------------------------------------------------------------------|
C|--------------0---------------0--------------0-----------------0------|
G|----------0---------------0---------------4----------------4----------|
C|------5---------------5---------------7---------------7---------------|
G|-----------------------------------0--------------0-------------------|
C|--5--------------5----------------------------------------------------|
		And now Iím left with nothing

E|----------------------------------------------------------------------|
C|-----------0--------------0--------------0---------------0------------|
G|----0--------------0--------------0---------------0-------------------|
C|--------0--------------0--------------0---------------0---------------|
G|----------------------------------------------------------------------|
C|--0------------0---------------0---------------0----------------------|
					So maybe itís

E|----------------------------------------------------------------------|
C|--------------0---------------0--------------0-----------------0------|
G|----------0---------------0---------------0----------------0----------|
C|------5---------------5---------------5---------------5---------------|
G|----------------------------------------------------------------------|
C|--5--------------5----------------5--------------5--------------------|
True 					that I canít


E|----------------------------------------------------------------------|
C|--------------0---------------0--------------0-----------------0------|
G|----------4---------------4---------------4----------------4----------|
C|------7---------------7---------------7---------------7---------------|
G|--0---------------0---------------0--------------0--------------------|
C|----------------------------------------------------------------------|
	Live without you			and maybe

E|----------------------------------------------------------------------|
C|--------------0---------------0--------------0-----------------0------|
G|----------0---------------0---------------0----------------0----------|
C|------5---------------5---------------5---------------5---------------|
G|----------------------------------------------------------------------|
C|--5--------------5----------------5--------------5--------------------|
	Two				is better than

E|----------------------------------------------------------------------|
C|--------------0---------------0--------------0-----------------0------|
G|----------4---------------4---------------4----------------4----------|
C|------7---------------7---------------7---------------7---------------|
G|--0---------------0---------------0--------------0--------------------|
C|----------------------------------------------------------------------|
	One				but thereís so much

E|----------------------------------------------------------------------|
C|--------------0---------------0--------------0-----------------0------|
G|----------0---------------0---------------0----------------0----------|
C|------5---------------5---------------5---------------5---------------|
G|----------------------------------------------------------------------|
C|--5--------------5----------------5--------------5--------------------|
	Time						to

E|----------------------------------------------------------------------|
C|--------------0---------------0--------------0-----------------0------|
G|----------4---------------4---------------4----------------4----------|
C|------7---------------7---------------7---------------7---------------|
G|--0---------------0---------------0--------------0--------------------|
C|----------------------------------------------------------------------|
	Figure out		the rest of my life		and youíve


E|----------------------------------------------------------------------|
C|--------------0---------------0--------------0----------------0-------|
G|----------4---------------4---------------4---------------4-----------|
C|------4--------------4----------------7---------------7---------------|
G|--2--------------2----------------0--------------0--------------------|
C|----------------------------------------------------------------------|
	Already got		 me coming un-

E|----------------------------------------------------------------------|
C|--------------0---------------0--------------0-----------------0------|
G|----------0---------------0---------------0----------------0----------|
C|------5---------------5---------------5---------------5---------------|
G|----------------------------------------------------------------------|
C|--5--------------5----------------5--------------5--------------------|
	Done 					and Iím thinking

E|----------------------------------------------------------------------|
C|--------------0---------------0--------------0----------------0-------|
G|----------4---------------4---------------4---------------4-----------|
C|------4--------------4----------------7---------------7---------------|
G|--2--------------2----------------0--------------0--------------------|
C|----------------------------------------------------------------------|
	Two 			is better than one

E|----------------------------------------------------------------------|
C|-----------0--------------0--------------0---------------0------------|
G|----0--------------0--------------0---------------0-------------------|
C|--------0--------------0--------------0---------------0---------------|
G|----------------------------------------------------------------------|
C|--0------------0---------------0---------------0----------------------|

E|----------------------------------------------------------------------|
C|-----------0--------------0--------------0---------------0------------|
G|----0--------------0--------------0---------------0-------------------|
C|--------0--------------0--------------0---------------0---------------|
G|----------------------------------------------------------------------|
C|--0------------0---------------0---------------0----------------------|
   I remember every look upon your face

E|----------------------------------------------------------------------|
C|--------------0---------------0--------------0----------------0-------|
G|----------4---------------4---------------4---------------4-----------|
C|------4--------------4----------------4---------------4---------------|
G|--2--------------2----------------2--------------2--------------------|
C|----------------------------------------------------------------------|
   The way you roll your eyes the way you taste

E|----------------------------------------------------------------------|
C|--------------0---------------0--------------0-----------------0------|
G|----------0---------------0---------------4----------------4----------|
C|------5---------------5---------------7---------------7---------------|
G|-----------------------------------0--------------0-------------------|
C|--5--------------5----------------------------------------------------|
You make it hard for breathing

E|----------------------------------------------------------------------|
C|-----------0--------------0--------------0---------------0------------|
G|----0--------------0--------------0---------------0-------------------|
C|--------0--------------0--------------0---------------0---------------|
G|----------------------------------------------------------------------|
C|--0------------0---------------0---------------0----------------------|

E|----------------------------------------------------------------------|
C|-----------0--------------0--------------0---------------0------------|
G|----0--------------0--------------0---------------0-------------------|
C|--------0--------------0--------------0---------------0---------------|
G|----------------------------------------------------------------------|
C|--0------------0---------------0---------------0----------------------|
	 ĎCause when I close my eyes and drift away

E|----------------------------------------------------------------------|
C|--------------0---------------0--------------0----------------0-------|
G|----------4---------------4---------------4---------------4-----------|
C|------4--------------4----------------4---------------4---------------|
G|--2--------------2----------------2--------------2--------------------|
C|----------------------------------------------------------------------|
	   I think of you and everythingís okay

E|----------------------------------------------------------------------|
C|--------------0---------------0--------------0-----------------0------|
G|----------0---------------0---------------4----------------4----------|
C|------5---------------5---------------7---------------7---------------|
G|-----------------------------------0--------------0-------------------|
C|--5--------------5----------------------------------------------------|
		And finally now weíre leaving

E|----------------------------------------------------------------------|
C|-----------0--------------0--------------0---------------0------------|
G|----0--------------0--------------0---------------0-------------------|
C|--------0--------------0--------------0---------------0---------------|
G|----------------------------------------------------------------------|
C|--0------------0---------------0---------------0----------------------|
					Then maybe itís

E|----------------------------------------------------------------------|
C|--------------0---------------0--------------0-----------------0------|
G|----------0---------------0---------------0----------------0----------|
C|------5---------------5---------------5---------------5---------------|
G|----------------------------------------------------------------------|
C|--5--------------5----------------5--------------5--------------------|
True 					that I canít

E|----------------------------------------------------------------------|
C|--------------0---------------0--------------0-----------------0------|
G|----------4---------------4---------------4----------------4----------|
C|------7---------------7---------------7---------------7---------------|
G|--0---------------0---------------0--------------0--------------------|
C|----------------------------------------------------------------------|
	Live without you			and maybe

E|----------------------------------------------------------------------|
C|--------------0---------------0--------------0-----------------0------|
G|----------0---------------0---------------0----------------0----------|
C|------5---------------5---------------5---------------5---------------|
G|----------------------------------------------------------------------|
C|--5--------------5----------------5--------------5--------------------|
	Two				is better than


E|----------------------------------------------------------------------|
C|--------------0---------------0--------------0-----------------0------|
G|----------4---------------4---------------4----------------4----------|
C|------7---------------7---------------7---------------7---------------|
G|--0---------------0---------------0--------------0--------------------|
C|----------------------------------------------------------------------|
	One				but thereís so much

E|----------------------------------------------------------------------|
C|--------------0---------------0--------------0-----------------0------|
G|----------0---------------0---------------0----------------0----------|
C|------5---------------5---------------5---------------5---------------|
G|----------------------------------------------------------------------|
C|--5--------------5----------------5--------------5--------------------|
	Time						to

E|----------------------------------------------------------------------|
C|--------------0---------------0--------------0-----------------0------|
G|----------4---------------4---------------4----------------4----------|
C|------7---------------7---------------7---------------7---------------|
G|--0---------------0---------------0--------------0--------------------|
C|----------------------------------------------------------------------|
	Figure out		the rest of my life		and youíve

E|----------------------------------------------------------------------|
C|--------------0---------------0--------------0----------------0-------|
G|----------4---------------4---------------4---------------4-----------|
C|------4--------------4----------------7---------------7---------------|
G|--2--------------2----------------0--------------0--------------------|
C|----------------------------------------------------------------------|
	Already got 		me coming un-

E|----------------------------------------------------------------------|
C|--------------0---------------0--------------0-----------------0------|
G|----------0---------------0---------------0----------------0----------|
C|------5---------------5---------------5---------------5---------------|
G|----------------------------------------------------------------------|
C|--5--------------5----------------5--------------5--------------------|
	Done 					and Iím thinking


E|----------------------------------------------------------------------|
C|--------------0---------------0--------------0----------------0-------|
G|----------4---------------4---------------4---------------4-----------|
C|------4--------------4----------------7---------------7---------------|
G|--2--------------2----------------0--------------0--------------------|
C|----------------------------------------------------------------------|
	Two 			is better than one

E|----------------------------------------------------------------------|
C|--------------0---------------0--------------0-----------------0------|
G|----------0---------------0---------------0----------------0----------|
C|------5---------------5---------------5---------------5---------------|
G|----------------------------------------------------------------------|
C|--5--------------5----------------5--------------5--------------------|

E|----------------------------------------------------------------------|
C|--------------0---------------0--------------0----------------0-------|
G|----------4---------------4---------------4---------------4-----------|
C|------4--------------4----------------4---------------4---------------|
G|--2--------------2----------------2--------------2--------------------|
C|----------------------------------------------------------------------|

E|----------------------------------------------------------------------|
C|--------------0---------------0--------------0-----------------0------|
G|----------0---------------0---------------0----------------0----------|
C|------5---------------5---------------5---------------5---------------|
G|----------------------------------------------------------------------|
C|--5--------------5----------------5--------------5--------------------|

Dm

E|----------------------------------------------------------------------|
C|-----------0--------------0--------------0---------------0------------|
G|----0--------------0--------------0---------------0-------------------|
C|--------0--------------0--------------0---------------0---------------|
G|----------------------------------------------------------------------|
C|--0------------0---------------0---------------0----------------------|
   I remember what you wore on the first day

E|----------------------------------------------------------------------|
C|--------------0---------------0--------------0----------------0-------|
G|----------4---------------4---------------4---------------4-----------|
C|------4--------------4----------------4---------------4---------------|
G|--2--------------2----------------2--------------2--------------------|
C|----------------------------------------------------------------------|
   You came into my life and I thought hey


E|---x---|
C|---0---|
G|---0---|
C|---5---|
G|---0---|
C|---5---|
Maybe itís

E|----------------------------------------------------------------------|
C|--------------0---------------0--------------0-----------------0------|
G|----------0---------------0---------------0----------------0----------|
C|------5---------------5---------------5---------------5---------------|
G|----------------------------------------------------------------------|
C|--5--------------5----------------5--------------5--------------------|
True 					that I canít

E|----------------------------------------------------------------------|
C|--------------0---------------0--------------0-----------------0------|
G|----------4---------------4---------------4----------------4----------|
C|------7---------------7---------------7---------------7---------------|
G|--0---------------0---------------0--------------0--------------------|
C|----------------------------------------------------------------------|
	Live without you			and maybe

E|----------------------------------------------------------------------|
C|--------------0---------------0--------------0-----------------0------|
G|----------0---------------0---------------0----------------0----------|
C|------5---------------5---------------5---------------5---------------|
G|----------------------------------------------------------------------|
C|--5--------------5----------------5--------------5--------------------|
	Two				is better than

E|----------------------------------------------------------------------|
C|--------------0---------------0--------------0-----------------0------|
G|----------4---------------4---------------4----------------4----------|
C|------7---------------7---------------7---------------7---------------|
G|--0---------------0---------------0--------------0--------------------|
C|----------------------------------------------------------------------|
	One				but thereís so much

E|----------------------------------------------------------------------|
C|--------------0---------------0--------------0-----------------0------|
G|----------0---------------0---------------0----------------0----------|
C|------5---------------5---------------5---------------5---------------|
G|----------------------------------------------------------------------|
C|--5--------------5----------------5--------------5--------------------|
	Time						to

E|----------------------------------------------------------------------|
C|--------------0---------------0--------------0-----------------0------|
G|----------4---------------4---------------4----------------4----------|
C|------7---------------7---------------7---------------7---------------|
G|--0---------------0---------------0--------------0--------------------|
C|----------------------------------------------------------------------|
	Figure out		the rest of my life		and youíve

E|----------------------------------------------------------------------|
C|--------------0---------------0--------------0----------------0-------|
G|----------4---------------4---------------4---------------4-----------|
C|------4--------------4----------------7---------------7---------------|
G|--2--------------2----------------0--------------0--------------------|
C|----------------------------------------------------------------------|
	Already got 		me coming un-

E|----------------------------------------------------------------------|
C|--------------0---------------0--------------0-----------------0------|
G|----------0---------------0---------------0----------------0----------|
C|------5---------------5---------------5---------------5---------------|
G|----------------------------------------------------------------------|
C|--5--------------5----------------5--------------5--------------------|
	Done 					and Iím thinking


E|----------------------------------------------------------------------|
C|--------------0---------------0--------------0-----------------0------|
G|----------0---------------0---------------0----------------0----------|
C|------5---------------5---------------5---------------5---------------|
G|----------------------------------------------------------------------|
C|--5--------------5----------------5--------------5--------------------|
	Ooh					I canít

E|----------------------------------------------------------------------|
C|--------------0---------------0--------------0-----------------0------|
G|----------4---------------4---------------4----------------4----------|
C|------7---------------7---------------7---------------7---------------|
G|--0---------------0---------------0--------------0--------------------|
C|----------------------------------------------------------------------|
	Live without you		ĎCause baby

E|----------------------------------------------------------------------|
C|--------------0---------------0--------------0-----------------0------|
G|----------0---------------0---------------0----------------0----------|
C|------5---------------5---------------5---------------5---------------|
G|----------------------------------------------------------------------|
C|--5--------------5----------------5--------------5--------------------|
	Two				is better than

E|----------------------------------------------------------------------|
C|--------------0---------------0--------------0-----------------0------|
G|----------4---------------4---------------4----------------4----------|
C|------7---------------7---------------7---------------7---------------|
G|--0---------------0---------------0--------------0--------------------|
C|----------------------------------------------------------------------|
	One					thereís so much

E|----------------------------------------------------------------------|
C|--------------0---------------0--------------0-----------------0------|
G|----------0---------------0---------------0----------------0----------|
C|------5---------------5---------------5---------------5---------------|
G|----------------------------------------------------------------------|
C|--5--------------5----------------5--------------5--------------------|
	Time							to


E|----------------------------------------------------------------------|
C|--------------0---------------0--------------0-----------------0------|
G|----------4---------------4---------------4----------------4----------|
C|------7---------------7---------------7---------------7---------------|
G|--0---------------0---------------0--------------0--------------------|
C|----------------------------------------------------------------------|
	Figure out		the rest of my life		well Iíve

E|----------------------------------------------------------------------|
C|--------------0---------------0--------------0----------------0-------|
G|----------4---------------4---------------4---------------4-----------|
C|------4--------------4----------------7---------------7---------------|
G|--2--------------2----------------0--------------0--------------------|
C|----------------------------------------------------------------------|
		Figured out when all is said and

E|----------------------------------------------------------------------|
C|--------------0---------------0--------------0-----------------0------|
G|----------0---------------0---------------0----------------0----------|
C|------5---------------5---------------5---------------5---------------|
G|----------------------------------------------------------------------|
C|--5--------------5----------------5--------------5--------------------|
	Done

E|----------------------------------------------------------------------|
C|--------------0---------------0--------------0----------------0-------|
G|----------4---------------4---------------4---------------4-----------|
C|------4--------------4----------------7---------------7---------------|
G|--2--------------2----------------0--------------0--------------------|
C|----------------------------------------------------------------------|
	Two			is better than one

E|----------------------------------------------------------------------|
C|-----------0--------------0---------------0---------------0-----------|
G|----0--------------0--------------0---------------0-------------------|
C|--------0--------------0--------------0---------------0---------------|
G|----------------------------------------------------------------------|
C|--0------------0---------------0--------------0-----------------------|

E|----------------------------------------------------------------------|
C|--------------0---------------0--------------0----------------0-------|
G|----------4---------------4---------------4---------------4-----------|
C|------4--------------4----------------4---------------4---------------|
G|--2--------------2----------------2--------------2--------------------|
C|----------------------------------------------------------------------|

E|----------------------------------------------------------------------|
C|--------------0---------------0--------------0----------------0-------|
G|----------0---------------0---------------4---------------4-----------|
C|------5--------------5----------------7---------------7---------------|
G|-----------------------------------0--------------0-------------------|
C|--5--------------5----------------------------------------------------|
	Two			is better than one

E|---x---|
C|---x---|
G|---0---|
C|---0---|
G|---0---|
C|---0---|
Tap to rate this tab
# A B C D E F G H I J K L M N O P Q R S T U V W X Y Z