Song name
# A B C D E F G H I J K L M N O P Q R S T U V W X Y Z

Boys Like Girls - Love Drunk tab

#----------------------------------PLEASE NOTE---------------------------------#
#This file is the author's own work and represents their interpretation of the #
#song. You may only use this file for private study, scholarship, or research. #
#------------------------------------------------------------------------------#

LOVE DRUNK
As recorded by Boys Like Girls
(From the 2009 Album LOVE DRUNK)

Transcribed by Janne Jalava
	

Words and Music by Boys Like Girls

C5
x 3 5 5 x x
	
Ab5
6 6 6 x x x
	
Eb5
1 1 1 x x x
	
Bb5
8 8 8 x x x
D5
x 5 7 7 x x
	
F5
3 3 3 x x x
	
C5(type 2)
10 10 10 x x x
	
D5(type 2)
12 12 12 x x x

Gtr I (E A D G B E) - 'Clean'
Gtr II (D A D G B E) - 'Guitar 1'
Gtr III (D A D G B E) - 'Guitar 2'
Gtr IV (D A D G B E) - 'Vocals'
Gtr V (F# B E A C# F#) - 'Vocals High'

 Intro
  Q=152
 4/4
  Gtr I
  PM----------------------------------------------------------------------|
  S S S S S S S S S S S S  S   S   S   S    S S S S S S S S S S S S S S S S
|-----------------------------------------|---------------------------------|
|-4-4-4-4-4-4-4-4-4-4-4-4--4---4---4---4--|-4-4-4-4-4-4-4-4-4-4-4-4-4-4-4-4-|
|-----------------------------------------|---------------------------------|
|-------------------------(1)-(1)-(1)-(1)-|-1-1-1-1-1-1-1-1-1-1-1-1-1-1-1-1-|
|-----------------------------------------|---------------------------------|
|-----------------------------------------|---------------------------------|


  Eb5                                                     Bb5
  Gtr II
  W                                     +H                 H
  |                                      |                 |
  /                                      /                 /

  PM-------------------------------------------------------------------------
  S S S S  S S  S  S S S S S  S S S S    S S S S  S S S S  S S S S  S S S S
|-------------------------------------|-------------------------------------|
|-4-4-4-4--4-4--4--4-4-4-4-4--4-4-4-4-|--4-4-4-4--4-4-4-4--4-4-4-4--4-4-4-4-|
|-------------------------------------|-------------------------------------|
|-1-1-1-1--1-1--1--1-1-1-1-1--1-1-1-1-|--1-1-1-1--1-1-1-1--1-1-1-1--1-1-1-1-|
|-------------------------------------|-------------------------------------|
|-------------------------------------|-------------------------------------|
|
| Gtr III
| E   E    E    Q.            Q          Q        Q        Q        Q
|--------------11---------------------|-11----------------11----------------|
|-8h==9---11-----------------11-------|----------11----------------11-------|
|-------------------------------------|-------------------------------------|
|-------------------------------------|-------------------------------------|
|-------------------------------------|-------------------------------------|
|-------------------------------------|-------------------------------------|


  Ab5
  W                                     +W
  |                                      |
  /                                      /

 -------------------------------------------------------------------------|
  S S S S  S S  S  S S S S S  S S S S    S S S S  S S S S  S S S S  S S S S
|-------------------------------------|---------------------------------------|
|-4-4-4-4--4-4--4--4-4-4-4-4--4-4-4-4-|--4-4-4-4--4-4-4-4--4-4-4-4--4-4-4-4---|
|-------------------------------------|---------------------------------------|
|-1-1-1-1--1-1--1--1-1-1-1-1--1-1-1-1-|--1-1-1-1--1-1-1-1--1-1-1-1--1-1-1-1---|
|-------------------------------------|---------------------------------------|
|-------------------------------------|---------------------------------------|
|
| E   E    E    Q.            Q          Q        Q        Q        Q
|--------------11---------------------|-11----------------11------------------|
|-8h==9---11-----------------11-------|----------11----------------11---------|
|-------------------------------------|---------------------------------------|
|-------------------------------------|---------------------------------------|
|-------------------------------------|---------------------------------------|
|-------------------------------------|---------------------------------------|


  Eb5                                                     Bb5
  W                                     +H                 H
  |                                      |                 |
  /                                      /                 /

  PM-------------------------------------------------------------------------
  S S S S  S S  S  S S S S S  S S S S    S S S S  S S S S  S S S S  S S S S
|-------------------------------------|-------------------------------------|
|-4-4-4-4--4-4--4--4-4-4-4-4--4-4-4-4-|--4-4-4-4--4-4-4-4--4-4-4-4--4-4-4-4-|
|-------------------------------------|-------------------------------------|
|-1-1-1-1--1-1--1--1-1-1-1-1--1-1-1-1-|--1-1-1-1--1-1-1-1--1-1-1-1--1-1-1-1-|
|-------------------------------------|-------------------------------------|
|-------------------------------------|-------------------------------------|
|
| E   E    E    Q.            Q          Q        Q        Q        Q
|--------------11---------------------|-11----------------11----------------|
|-8h==9---11-----------------11-------|----------11----------------11-------|
|-------------------------------------|-------------------------------------|
|-------------------------------------|-------------------------------------|
|-------------------------------------|-------------------------------------|
|-------------------------------------|-------------------------------------|


  Ab5
  E   E    E    E    E   E    E   E      E   E    E   E    E   E    E   E
  |   |    |    |    |   |    |   |      |   |    |   |    |   |    |   |
  /   /    /    /    /   /    /   /      /   /    /   /    /   /    /   /

 -------------------------------------------------------------------------|
  S S S S  S S  S  S S S S S  S S S S    S S S S  S S S S  S S S S  S S S S
|-------------------------------------|---------------------------------------||
|-4-4-4-4--4-4--4--4-4-4-4-4--4-4-4-4-|--4-4-4-4--4-4-4-4--4-4-4-4--4-4-4-4---||
|-------------------------------------|---------------------------------------||
|-1-1-1-1--1-1--1--1-1-1-1-1--1-1-1-1-|--1-1-1-1--1-1-1-1--1-1-1-1--1-1-1-1---||
|-------------------------------------|---------------------------------------||
|-------------------------------------|---------------------------------------||
|
| E   E    E    Q.            Q          Q        Q        Q        Q
|--------------11---------------------|-11----------------11------------------||
|-8h==9---11-----------------11-------|----------11----------------11---------||
|-------------------------------------|---------------------------------------||
|-------------------------------------|---------------------------------------||
|-------------------------------------|---------------------------------------||
|-------------------------------------|---------------------------------------||


 Verse 1
  Gtr II
  PM------------------------------------------------------------------|
  E E E E E E E E   E E E E E E E E   E E E E E E E E   E E E E E E E E
|-----------------|-----------------|-----------------|------------------|
|-----------------|-----------------|-----------------|------------------|
|-----------------|-----------------|-----------------|------------------|
|-----------------|-----------------|-----------------|------------------|
|-1-1-1-1-1-1-1-1-|-1-1-1-1-1-1-1-1-|-6-6-6-6-6-6-6-6-|-6-6-6-6-6-6-6-6--|
|-1-1-1-1-1-1-1-1-|-1-1-1-1-1-1-1-1-|-6-6-6-6-6-6-6-6-|-6-6-6-6-6-6-6-6--|
|
| Gtr IV
| Q   E E Q   E E   E Q   H       E   E E E E E E E E   E Q   Q   Q   E
|-----------------|-----------------|-----------------|------------------|
|-----------------|-----------------|-----------------|------------------|
|-----------------|-----------------|-----------------|------------------|
|-----5---5---5-5-|-6-5---3---------|---5-5-5-5-5-5-5-|-6-5---3---1---3--|
|-----------------|-----------------|-----------------|------------------|
|-----------------|-----------------|-----------------|------------------|


   PM----------------------------------
   E  E E E E E E E   E E E E E E E E
|-------------------|-----------------|
|-------------------|-----------------|
|-------------------|-----------------|
|-------------------|-----------------|
|--3--3-3-3-3-3-3-3-|-3-3-3-3-3-3-3-3-|
|--3--3-3-3-3-3-3-3-|-3-3-3-3-3-3-3-3-|
|
| +H        Q   Q     E Q   Q   Q   E
|-------------------|-----------------|
|-------------------|-----------------|
|-------------------|-----------------|
|-(3)-----------5---|-6-5---3---1-----|
|-------------------|---------------6-|
|-------------------|-----------------|


 ---------------------------------------|
   E  E  E   E  E  E  E  E     E  E E E E E E E
|---------------------------|--------------------|
|---------------------------|--------------------|
|---------------------------|--------------------|
|---------------------------|-------------8-8-8--|
|--6--6--6---6--6--6--6--6--|--6--6-6-6-6-8-8-8--|
|--6--6--6---6--6--6--6--6--|--6--6-6-6-6-8-8-8--|
|
|  Q     E   Q     Q     E    +W
|---------------------------|--------------------|
|---------------------------|--------------------|
|---------------------------|--------------------|
|--6-----5---3-----1-----1--|-(1)----------------|
|-(6)---(6)-(6)---(6)---(6)-|-(6)----------------|
|---------------------------|--------------------|


  PM------------------------------------------------------------------|
  E E E E E E E E   E E E E E E E E   E E E E E E E E   E E E E E E E E
|-----------------|-----------------|-----------------|------------------|
|-----------------|-----------------|-----------------|------------------|
|-----------------|-----------------|-----------------|------------------|
|-----------------|-----------------|-----------------|------------------|
|-1-1-1-1-1-1-1-1-|-1-1-1-1-1-1-1-1-|-6-6-6-6-6-6-6-6-|-6-6-6-6-6-6-6-6--|
|-1-1-1-1-1-1-1-1-|-1-1-1-1-1-1-1-1-|-6-6-6-6-6-6-6-6-|-6-6-6-6-6-6-6-6--|
|
| E E E E E E E E   E Q   H       E   E E E E E E E E   E Q   Q   Q   E
|-----------------|-----------------|-----------------|------------------|
|-----------------|-----------------|-----------------|------------------|
|-----------------|-----------------|-----------------|------------------|
|---5-5-5-5-5-5-5-|-6-5---3---------|---5-5-5-5-5-5-5-|-6-5---3---1---3--|
|-----------------|-----------------|-----------------|------------------|
|-----------------|-----------------|-----------------|------------------|


   PM----------------------------------
   E  E E E E E E E   E E E E E E E E
|-------------------|-----------------|
|-------------------|-----------------|
|-------------------|-----------------|
|-------------------|-----------------|
|--3--3-3-3-3-3-3-3-|-3-3-3-3-3-3-3-3-|
|--3--3-3-3-3-3-3-3-|-3-3-3-3-3-3-3-3-|
|
| +H        Q   Q     E Q   Q   Q   E
|-------------------|-----------------|
|-------------------|-----------------|
|-------------------|-----------------|
|-(3)-----------5---|-6-5---3---1---3-|
|-------------------|-----------------|
|-------------------|-----------------|


 -----------------|
   E  E E E E E E E    E  H..
|-------------------|------------------------------------||
|-------------------|------------------------------------||
|-------------------|------------------------------------||
|-------------------|--8---------------------------------||
|--8--8-8-8-8-8-8-8-|--8---------------------------------||
|--8--8-8-8-8-8-8-8-|--8---------------------------------||
|
| +W                  +E  Q      E    E    E    E    E
|-------------------|----------(11)-(11)-(11)-(11)-(11)--||
|-------------------|------------------------------------||
|-------------------|------------8----8----8----8----8---||
|-(3)---------------|-(3)--------------------------------||
|-------------------|------------------------------------||
|-------------------|------------------------------------||


 Chorus
  C5                                     Ab5
  Gtr II
    E   E   E   E    E    E    E    E      E   E   E   E    E    E    E    E
    |   |   |   |    |    |    |    |      |   |   |   |    |    |    |    |
    /   /   /   /    /    /    /    /      /   /   /   /    /    /    /    /

  Gtr III
    E   E   E   E    E    E    E    E      E   E   E   E    E    E    E    E
|--------------------------------------|--------------------------------------|
|--11--11--11--11---11---11---11---11--|--11--11--11--11---11---11---11---11--|
|--------------------------------------|--------------------------------------|
|--------------------------------------|--------------------------------------|
|--------------------------------------|--------------------------------------|
|--------------------------------------|--------------------------------------|
|
| Gtr IV
|  +E   Q       E    E    E    E    E     +E   Q       E    E    E    E    E
|-(11)-(8)----(11)-(11)-(11)-(11)-(11)-|-(11)-(6)----(11)-(11)-(11)-(11)-(15)-|
|--------------------------------------|--------------------------------------|
|--(8)--5-------8----8----8----8----8--|--(8)--3-------8----8----8----8---12--|
|--------------------------------------|--------------------------------------|
|--------------------------------------|--------------------------------------|
|--------------------------------------|--------------------------------------|


  Eb5                                    Bb5
    E    E  E   E    E    E    E    E      E    E   E   E    E    E    E    E
    |    |  |   |    |    |    |    |      |    |   |   |    |    |    |    |
    /    /  /   /    /    /    /    /      /    /   /   /    /    /    /    /

    E    E  E   E    E    E    E    E      E    E   E   E    E    E    E    E
|--------------------------------------|----------------------------------------|
|---8----8--8---8----8----8----8----8--|----------------------------------------|
|--------------------------------------|--10---10--10--10---10---10---10---10---|
|--------------------------------------|----------------------------------------|
|--------------------------------------|----------------------------------------|
|--------------------------------------|----------------------------------------|
|
|  +E    Q      E    E    E    E    E     +E    Q       E    E    E    E    E
|-(15)-(13)---(11)-(11)-(11)-(11)-(13)-|-(13)-(10)----(10)-(10)-(10)-(10)-(11)--|
|--------------------------------------|----------------------------------------|
|-(12)--10------8----8----8----8---10--|-(10)---7-------7----7----7----7----8---|
|--------------------------------------|----------------------------------------|
|--------------------------------------|----------------------------------------|
|--------------------------------------|----------------------------------------|


  C5                                     Ab5
    E   E   E   E    E    E    E    E      E   E   E   E    E    E    E    E
    |   |   |   |    |    |    |    |      |   |   |   |    |    |    |    |
    /   /   /   /    /    /    /    /      /   /   /   /    /    /    /    /

    E   E   E   E    E    E    E    E      E   E   E   E    E    E    E    E
|--------------------------------------|--------------------------------------|
|--11--11--11--11---11---11---11---11--|--11--11--11--11---11---11---11---11--|
|--------------------------------------|--------------------------------------|
|--------------------------------------|--------------------------------------|
|--------------------------------------|--------------------------------------|
|--------------------------------------|--------------------------------------|
|
|  +E   Q       E    E    E    E    E     +E   Q       E    E    E    E    E
|-(11)-(8)----(11)-(11)-(11)-(11)-(11)-|-(11)-(6)----(11)-(11)-(11)-(11)-(15)-|
|--------------------------------------|--------------------------------------|
|--(8)--5-------8----8----8----8----8--|--(8)--3-------8----8----8----8---12--|
|--------------------------------------|--------------------------------------|
|--------------------------------------|--------------------------------------|
|--------------------------------------|--------------------------------------|


  Eb5                                    Bb5
    E    E  E   E    E    E    E    E      E    E   E  E  E   E    E   E
    |    |  |   |    |    |    |    |      |    |   |  |  |   |    |   |
    /    /  /   /    /    /    /    /      /    /   /  /  /   /    /   /

    E    E  E   E    E    E    E    E      E    E   E  E  E   E    E   E
|--------------------------------------|-----------------------------------|
|---8----8--8---8----8----8----8----8--|-----------------------------------|
|--------------------------------------|--10---10--10-10-10--10---10--10---|
|--------------------------------------|-----------------------------------|
|--------------------------------------|-----------------------------------|
|--------------------------------------|-----------------------------------|
|
|  +E    Q      E    E    E    E    E     +E    H            +E    E  +E
|-(15)-(13)---(11)-(11)-(11)-(11)-(13)-|-(13)-(10)----------(10)-(11)------|
|--------------------------------------|-----------------------------------|
|-(12)--10------8----8----8----8---10--|-(10)---7------------(7)---8--(8)--|
|--------------------------------------|-----------------------------------|
|--------------------------------------|-----------------------------------|
|--------------------------------------|-----------------------------------|


  Ab5                        Bb5
    E  E E   E  E E   E  E     E   E  E  E  E  E   E   E
    |  | |   |  | |   |  |     |   |  |  |  |  |   |   |
    /  / /   /  / /   /  /     /   /  /  /  /  /   /   /

    E  E E   E  E E   E  E     E   E  E  E  E  E   E   E
|--------------------------|-----------------------------|
|--------------------------|-----------------------------|
|---8--8-8---8--8-8---8--8-|--10--10-10-10-10-10--10--10-|
|--------------------------|-----------------------------|
|--------------------------|-----------------------------|
|--------------------------|-----------------------------|
|
|   Q.       Q.       Q       +H.                  Q
|-(10)-----(11)-----(18)---|-(18)----------------(11)----|
|--------------------11----|-(11)------------------------|
|---7--------8-------------|-----------------------8-----|
|--------------------------|-----------------------------|
|--------------------------|-----------------------------|
|--------------------------|-----------------------------|


  C5                             Ab5
    E  E E   E  E E   E      E     E   E  E   E    E    E    E    E
    |  | |   |  | |   |      |     |   |  |   |    |    |    |    |
    /  / /   /  / /   /      /     /   /  /   /    /    /    /    /

    E  E E   E  E E   E      E     E   E  E   E    E    E    E    E
|------------------------------|--------------------------------------|
|---8--8-8---8--8-8---8------8-|--------------------------------------|
|------------------------------|--10--10-10--10---10---10---10---10---|
|------------------------------|--------------------------------------|
|------------------------------|--------------------------------------|
|------------------------------|--------------------------------------|
|
|   Q.       Q.       Q           +Q.         E    E    E    E    E
|-(10)-----(11)-----(18)b20====|=(18)r======(18)-(18)-(18)-(11)-(11)--|
|--------------------11b13=====|=(11)r======(11)-(11)-(11)------------|
|---7--------8-----------------|--------------8----8----8----8----8---|
|------------------------------|--------------------------------------|
|------------------------------|--------------------------------------|
|------------------------------|--------------------------------------|


  C5                                     Ab5
    E   E   E   E    E    E    E    E      E   E   E   E    E    E    E    E
    |   |   |   |    |    |    |    |      |   |   |   |    |    |    |    |
    /   /   /   /    /    /    /    /      /   /   /   /    /    /    /    /

    E   E   E   E    E    E    E    E      E   E   E   E    E    E    E    E
|--------------------------------------|--------------------------------------|
|--11--11--11--11---11---11---11---11--|--11--11--11--11---11---11---11---11--|
|--------------------------------------|--------------------------------------|
|--------------------------------------|--------------------------------------|
|--------------------------------------|--------------------------------------|
|--------------------------------------|--------------------------------------|
|
|  +E   Q       E    E    E    E    E     +E   Q       E    E    E    E    E
|-(11)-(8)----(11)-(11)-(11)-(11)-(11)-|-(11)-(6)----(11)-(11)-(11)-(11)-(15)-|
|--------------------------------------|--------------------------------------|
|--(8)--5-------8----8----8----8----8--|--(8)--3-------8----8----8----8---12--|
|--------------------------------------|--------------------------------------|
|--------------------------------------|--------------------------------------|
|--------------------------------------|--------------------------------------|


  Eb5                      Bb5
    E    E   E E E E E E     E  H..
    |    |   | | | | | |     |
    /    /   / / / / / /     /

    E    E   E E E E E E     E  H..
|------------------------|--------------------------------|
|---8----8---8-8-8-8-8-8-|--------------------------------|
|------------------------|--10----------------------------|
|------------------------|--------------------------------|
|------------------------|--------------------------------|
|------------------------|--------------------------------|
|
|  +E    H..                +E  Q      E    Q    E    E
|-(15)-(13)--------------|-(13)------(10)-(10)--(8)-(10)--|
|------------------------|--------------------------------|
|-(12)--10---------------|-(10)--------7----7----5----7---|
|------------------------|--------------------------------|
|------------------------|--------------------------------|
|------------------------|--------------------------------|


  Eb5                                    Bb5
    E    E    E  E  E E  E E    E E  E E  E E  E E
    |    |    |  |  | |  | |    | |  | |  | |  | |
    /    /    /  /  / /  / /    / /  / /  / /  / /

    E    E    E  Q.      Q      Q    Q    Q    Q
|---------------11-----------|-11--------11--------|
|---8h===9---11---------11---|------11--------11---|
|----------------------------|---------------------|
|----------------------------|---------------------|
|----------------------------|---------------------|
|----------------------------|---------------------|
|
|  +E    H..                    W
|-(10)-(11)------------------|---------------------|
|----------------------------|---------------------|
|--(7)---8-------------------|---------------------|
|----------------------------|---------------------|
|----------------------------|---------------------|
|----------------------------|---------------------|


  Ab5                   Bb5
  E E  E  E  E E  E E    E E  E E  E E  E E
  | |  |  |  | |  | |    | |  | |  | |  | |
  / /  /  /  / /  / /    / /  / /  / /  / /

  E E  E  Q.      Q      Q    Q    Q    Q
|--------11-----------|-11--------11---------||
|-8h9-11---------11---|------11--------11----||
|---------------------|----------------------||
|---------------------|----------------------||
|---------------------|----------------------||
|---------------------|----------------------||
|
| W                      W
|---------------------|----------------------||
|---------------------|----------------------||
|---------------------|----------------------||
|---------------------|----------------------||
|---------------------|----------------------||
|---------------------|----------------------||


 Verse 2
  Gtr II
  PM------------------------------------------------------------------|
  E E E E E E E E   E E E E E E E E   E E E E E E E E   E E E E E E E E
|-----------------|-----------------|-----------------|------------------|
|-----------------|-----------------|-----------------|------------------|
|-----------------|-----------------|-----------------|------------------|
|-----------------|-----------------|-----------------|------------------|
|-1-1-1-1-1-1-1-1-|-1-1-1-1-1-1-1-1-|-6-6-6-6-6-6-6-6-|-6-6-6-6-6-6-6-6--|
|-1-1-1-1-1-1-1-1-|-1-1-1-1-1-1-1-1-|-6-6-6-6-6-6-6-6-|-6-6-6-6-6-6-6-6--|
|
| Gtr III
|   PM|   PM|   PM    PM|   PM|   PM    PM|   PM|   PM    PM|   PM|   PM
| E E E E E E E E   E E E E E E E E   E E E E E E E E   E E E E E E E E
|-----------------|-----------------|-----------------|------------------|
|-----------------|-----------------|-----------------|------------------|
|-8-----8-----8---|-8-----8-----8---|-8-----8-----8---|-8-----8-----8----|
|---8-8---8-8---8-|---8-8---8-8---8-|---8-8---8-8---8-|---8-8---8-8---8--|
|-----------------|-----------------|-----------------|------------------|
|-----------------|-----------------|-----------------|------------------|
|
| Gtr IV
| Q   E E Q   E E   E Q   H       E   E E E E E E E E   E Q   Q   Q   E
|-----------------|-----------------|-----------------|------------------|
|-----------------|-----------------|-----------------|------------------|
|-----------------|-----------------|-----------------|------------------|
|-----5---5---5-5-|-6-5---3---------|---5-5-5-5-5-5-5-|-6-5---3---1---3--|
|-----------------|-----------------|-----------------|------------------|
|-----------------|-----------------|-----------------|------------------|


   PM----------------------------------
   E  E E E E E E E   E E E E E E E E
|-------------------|-----------------|
|-------------------|-----------------|
|-------------------|-----------------|
|-------------------|-----------------|
|--3--3-3-3-3-3-3-3-|-3-3-3-3-3-3-3-3-|
|--3--3-3-3-3-3-3-3-|-3-3-3-3-3-3-3-3-|
|
|     PM|   PM|   PM    PM|   PM|   PM
|  E  E E E E E E E   E E E E E E E E
|-------------------|-----------------|
|-------------------|-----------------|
|--8------8-----8---|-8-----8-----8---|
|-----8-8---8-8---8-|---8-8---8-8---8-|
|-------------------|-----------------|
|-------------------|-----------------|
|
| +H        Q   Q     E Q   Q   Q   E
|-------------------|-----------------|
|-------------------|-----------------|
|-------------------|-----------------|
|-(3)-----------5---|-6-5---3---1-----|
|-------------------|---------------6-|
|-------------------|-----------------|


 ---------------------------------------|
   E  E  E   E  E  E  E  E     E  E E E E E E E
|---------------------------|--------------------|
|---------------------------|--------------------|
|---------------------------|--------------------|
|---------------------------|-------------8-8-8--|
|--6--6--6---6--6--6--6--6--|--6--6-6-6-6-8-8-8--|
|--6--6--6---6--6--6--6--6--|--6--6-6-6-6-8-8-8--|
|
|     PM|       PM|      PM       PM|   PM
|  E  E  E   E  E  E  E  E     E  E E E E E Q
|---------------------------|--------------------|
|---------------------------|-------------8-9----|
|--8---------8--------8-----|--8------8----------|
|-----8--8------8--8-----8--|-----8-8---8--------|
|---------------------------|--------------------|
|---------------------------|--------------------|
|
|  Q     E   Q     Q     E    +W
|---------------------------|--------------------|
|---------------------------|--------------------|
|---------------------------|--------------------|
|--6-----5---3-----1-----1--|-(1)----------------|
|-(6)---(6)-(6)---(6)---(6)-|-(6)----------------|
|---------------------------|--------------------|


   PM--------------------------------------
   E E E  E E E  E E    E E E  E E E  E E
|--------------------|--------------------|
|--------------------|--------------------|
|--------------------|--------------------|
|--------------------|--------------------|
|--1-1-1--1-1-1--1-1-|--1-1-1--1-1-1--1-1-|
|--1-1-1--1-1-1--1-1-|--1-1-1--1-1-1--1-1-|
|
|    PM|    PM|    PM     PM|    PM|    PM
|  E E E  E E E  E E    E E E  E E E  E E
|-11-----11-----11---|-11-----11-----11---|
|--------------------|--------------------|
|--8------8------8---|--8------8------8---|
|----8-8----8-8----8-|----8-8----8-8----8-|
|--------------------|--------------------|
|--------------------|--------------------|
|
|  Q   E  E Q    E E    E Q    H        E
|--------------------|--------------------|
|--------------------|--------------------|
|--------------------|--------------------|
|------5----5----5-5-|--6-5----3----------|
|--------------------|--------------------|
|--------------------|--------------------|


 --------------------------------------|
   E E E  E E E  E E    E E E  E E E E E
|--------------------|--------------------|
|--------------------|--------------------|
|--------------------|--------------------|
|--------------------|--------------------|
|--6-6-6--6-6-6--6-6-|--6-6-6--6-6-6-6-6--|
|--6-6-6--6-6-6--6-6-|--6-6-6--6-6-6-6-6--|
|
|    PM|    PM|    PM     PM|
|  E E E  E E E  E E    E E E  E E E Q
|-11-----11-----11---|-11-----11----------|
|--------------------|-----------8-9-8----|
|--8------8------8---|--8------8----------|
|----8-8----8-8----8-|----8-8-------------|
|--------------------|--------------------|
|--------------------|--------------------|
|
|  E E E  E E E  E E    E Q    Q   Q   E
|--------------------|--------------------|
|--------------------|--------------------|
|--------------------|--------------------|
|----5-5--5-5-5--5-5-|--6-5----3---1---3--|
|--------------------|--------------------|
|--------------------|--------------------|


   PM---------------------------------------
   E  E E  E E E  E E    E E E  E E E  E E
|---------------------|--------------------|
|---------------------|--------------------|
|---------------------|--------------------|
|---------------------|--------------------|
|--3--3-3--3-3-3--3-3-|--3-3-3--3-3-3--3-3-|
|--3--3-3--3-3-3--3-3-|--3-3-3--3-3-3--3-3-|
|
|     PM|    PM|    PM     PM|    PM|    PM
|  E  E E  E E E  E E    E E E  E E E  E E
|-11------11-----11---|-11-----11-----11---|
|---------------------|--------------------|
|--8-------8------8---|--8------8------8---|
|-----8-8----8-8----8-|----8-8----8-8----8-|
|---------------------|--------------------|
|---------------------|--------------------|
|
| +H         Q    Q      E Q    Q   Q    E
|---------------------|--------------------|
|---------------------|--------------------|
|---------------------|--------------------|
|-(3)-------------5---|--6-5----3---1----3-|
|---------------------|--------------------|
|---------------------|--------------------|


 -------------------|
   E  E E  E E E  E E    E  H..
|---------------------|------------------------------------||
|---------------------|------------------------------------||
|---------------------|------------------------------------||
|---------------------|--8---------------------------------||
|--8--8-8--8-8-8--8-8-|--8---------------------------------||
|--8--8-8--8-8-8--8-8-|--8---------------------------------||
|
|     PM|    PM|    PM
|  E  E E  E E E  E E    E  H..
|-11------11-----11---|-11---------------------------------||
|---------------------|------------------------------------||
|--8-------8------8---|--8---------------------------------||
|-----8-8----8-8----8-|------------------------------------||
|---------------------|------------------------------------||
|---------------------|------------------------------------||
|
| +W                    +E  Q      E    E    E    E    E
|---------------------|----------(11)-(11)-(11)-(11)-(11)--||
|---------------------|------------------------------------||
|---------------------|------------8----8----8----8----8---||
|-(3)-----------------|-(3)--------------------------------||
|---------------------|------------------------------------||
|---------------------|------------------------------------||


 Chorus
  C5                                     Ab5
  Gtr II
    E   E   E   E    E    E    E    E      E   E   E   E    E    E    E    E
    |   |   |   |    |    |    |    |      |   |   |   |    |    |    |    |
    /   /   /   /    /    /    /    /      /   /   /   /    /    /    /    /

  Gtr III
    E   E   E   E    E    E    E    E      E   E   E   E    E    E    E    E
|--------------------------------------|--------------------------------------|
|--11--11--11--11---11---11---11---11--|--11--11--11--11---11---11---11---11--|
|--------------------------------------|--------------------------------------|
|--------------------------------------|--------------------------------------|
|--------------------------------------|--------------------------------------|
|--------------------------------------|--------------------------------------|
|
| Gtr IV
|  +E   Q       E    E    E    E    E     +E   Q       E    E    E    E    E
|-(11)-(8)----(11)-(11)-(11)-(11)-(11)-|-(11)-(6)----(11)-(11)-(11)-(11)-(15)-|
|--------------------------------------|--------------------------------------|
|--(8)--5-------8----8----8----8----8--|--(8)--3-------8----8----8----8---12--|
|--------------------------------------|--------------------------------------|
|--------------------------------------|--------------------------------------|
|--------------------------------------|--------------------------------------|


  Eb5                                    Bb5
    E    E  E   E    E    E    E    E      E    E   E   E    E    E    E    E
    |    |  |   |    |    |    |    |      |    |   |   |    |    |    |    |
    /    /  /   /    /    /    /    /      /    /   /   /    /    /    /    /

    E    E  E   E    E    E    E    E      E    E   E   E    E    E    E    E
|--------------------------------------|----------------------------------------|
|---8----8--8---8----8----8----8----8--|----------------------------------------|
|--------------------------------------|--10---10--10--10---10---10---10---10---|
|--------------------------------------|----------------------------------------|
|--------------------------------------|----------------------------------------|
|--------------------------------------|----------------------------------------|
|
|  +E    Q      E    E    E    E    E     +E    Q       E    E    E    E    E
|-(15)-(13)---(11)-(11)-(11)-(11)-(13)-|-(13)-(10)----(10)-(10)-(10)-(10)-(11)--|
|--------------------------------------|----------------------------------------|
|-(12)--10------8----8----8----8---10--|-(10)---7-------7----7----7----7----8---|
|--------------------------------------|----------------------------------------|
|--------------------------------------|----------------------------------------|
|--------------------------------------|----------------------------------------|


  C5                                     Ab5
    E   E   E   E    E    E    E    E      E   E   E   E    E    E    E    E
    |   |   |   |    |    |    |    |      |   |   |   |    |    |    |    |
    /   /   /   /    /    /    /    /      /   /   /   /    /    /    /    /

    E   E   E   E    E    E    E    E      E   E   E   E    E    E    E    E
|--------------------------------------|--------------------------------------|
|--11--11--11--11---11---11---11---11--|--11--11--11--11---11---11---11---11--|
|--------------------------------------|--------------------------------------|
|--------------------------------------|--------------------------------------|
|--------------------------------------|--------------------------------------|
|--------------------------------------|--------------------------------------|
|
|  +E   Q       E    E    E    E    E     +E   Q       E    E    E    E    E
|-(11)-(8)----(11)-(11)-(11)-(11)-(11)-|-(11)-(6)----(11)-(11)-(11)-(11)-(15)-|
|--------------------------------------|--------------------------------------|
|--(8)--5-------8----8----8----8----8--|--(8)--3-------8----8----8----8---12--|
|--------------------------------------|--------------------------------------|
|--------------------------------------|--------------------------------------|
|--------------------------------------|--------------------------------------|


  Eb5                                    Bb5
    E    E  E   E    E    E    E    E      E    E   E  E  E   E    E   E
    |    |  |   |    |    |    |    |      |    |   |  |  |   |    |   |
    /    /  /   /    /    /    /    /      /    /   /  /  /   /    /   /

    E    E  E   E    E    E    E    E      E    E   E  E  E   E    E   E
|--------------------------------------|-----------------------------------|
|---8----8--8---8----8----8----8----8--|-----------------------------------|
|--------------------------------------|--10---10--10-10-10--10---10--10---|
|--------------------------------------|-----------------------------------|
|--------------------------------------|-----------------------------------|
|--------------------------------------|-----------------------------------|
|
|  +E    Q      E    E    E    E    E     +E    H            +E    E  +E
|-(15)-(13)---(11)-(11)-(11)-(11)-(13)-|-(13)-(10)----------(10)-(11)------|
|--------------------------------------|-----------------------------------|
|-(12)--10------8----8----8----8---10--|-(10)---7------------(7)---8--(8)--|
|--------------------------------------|-----------------------------------|
|--------------------------------------|-----------------------------------|
|--------------------------------------|-----------------------------------|


  Ab5                        Bb5
    E  E E   E  E E   E  E     E   E  E  E  E  E   E   E
    |  | |   |  | |   |  |     |   |  |  |  |  |   |   |
    /  / /   /  / /   /  /     /   /  /  /  /  /   /   /

    E  E E   E  E E   E  E     E   E  E  E  E  E   E   E
|--------------------------|-----------------------------|
|--------------------------|-----------------------------|
|---8--8-8---8--8-8---8--8-|--10--10-10-10-10-10--10--10-|
|--------------------------|-----------------------------|
|--------------------------|-----------------------------|
|--------------------------|-----------------------------|
|
|   Q.       Q.       Q       +H.                  Q
|-(10)-----(11)-----(18)---|-(18)----------------(11)----|
|--------------------11----|-(11)------------------------|
|---7--------8-------------|-----------------------8-----|
|--------------------------|-----------------------------|
|--------------------------|-----------------------------|
|--------------------------|-----------------------------|


  C5                             Bb5
    E  E E   E  E E   E      E     E   E  E   E    E    E    E    E
    |  | |   |  | |   |      |     |   |  |   |    |    |    |    |
    /  / /   /  / /   /      /     /   /  /   /    /    /    /    /

    E  E E   E  E E   E      E     E   E  E   E    E    E    E    E
|------------------------------|--------------------------------------|
|---8--8-8---8--8-8---8------8-|--------------------------------------|
|------------------------------|--10--10-10--10---10---10---10---10---|
|------------------------------|--------------------------------------|
|------------------------------|--------------------------------------|
|------------------------------|--------------------------------------|
|
|   Q.       Q.       Q           +Q.         E    E    E    E    E
|-(10)-----(11)-----(18)b20====|=(18)r======(18)-(18)-(18)-(11)-(11)--|
|--------------------11b13=====|=(11)r======(11)-(11)-(11)------------|
|---7--------8-----------------|--------------8----8----8----8----8---|
|------------------------------|--------------------------------------|
|------------------------------|--------------------------------------|
|------------------------------|--------------------------------------|


  C5                                   Ab5
   E  E   E   E    E    E    E    E      E   E   E   E    E    E    E    E
   |  |   |   |    |    |    |    |      |   |   |   |    |    |    |    |
   /  /   /   /    /    /    /    /      /   /   /   /    /    /    /    /

   E  E   E   E    E    E    E    E      E   E   E   E    E    E    E    E
|------------------------------------|--------------------------------------|
|-11-11--11--11---11---11---11---11--|--11--11--11--11---11---11---11---11--|
|------------------------------------|--------------------------------------|
|------------------------------------|--------------------------------------|
|------------------------------------|--------------------------------------|
|------------------------------------|--------------------------------------|
|
|  E  Q       E    E    E    E    E     +E   Q       E    E    E    E    E
|-11-(8)----(11)-(11)-(11)-(11)-(11)-|-(11)-(6)----(11)-(11)-(11)-(11)-(15)-|
|------------------------------------|--------------------------------------|
|--8--5-------8----8----8----8----8--|--(8)--3-------8----8----8----8---12--|
|------------------------------------|--------------------------------------|
|------------------------------------|--------------------------------------|
|------------------------------------|--------------------------------------|


  Eb5                      Bb5
    E    E   E E E E E E     E   E  E   E    E   E  E    E
    |    |   | | | | | |     |   |  |   |    |   |  |    |
    /    /   / / / / / /     /   /  /   /    /   /  /    /

    E    E   E E E E E E     E   E  E   E    E   E  E    E
|------------------------|-----------------------------------|
|---8----8---8-8-8-8-8-8-|-----------------------------------|
|------------------------|--10--10-10--10---10--10-10---10---|
|------------------------|-----------------------------------|
|------------------------|-----------------------------------|
|------------------------|-----------------------------------|
|
|  +E    H..                +E   Q      E    Q      E    E
|-(15)-(13)--------------|-(13)-------(10)-(10)----(8)-(10)--|
|------------------------|-----------------------------------|
|-(12)--10---------------|-(10)---------7----7------5----7---|
|------------------------|-----------------------------------|
|------------------------|-----------------------------------|
|------------------------|-----------------------------------|


  Ab5
    E   E   E  E E E  E E    E E E E  E E E E
    |   |   |  | | |  | |    | | | |  | | | |
    /   /   /  / / /  / /    / / / /  / / / /

    E   E   E  E E E  E E    E E E E  E E E E
|-------------------------|-------------------|
|-------------------------|-------------------|
|---8---8---8--8-8-8--8-8-|--8-8-8-8--8-8-8-8-|
|-------------------------|-------------------|
|-------------------------|-------------------|
|-------------------------|-------------------|
|
|  +E   H..                  W
|-(10)-11-----------------|-------------------|
|-------------------------|-------------------|
|--(7)--8-----------------|-------------------|
|-------------------------|-------------------|
|-------------------------|-------------------|
|-------------------------|-------------------|
|
| Gtr V
|   Q       E  Q   E  Q      Q   Q    H
|-------------------------|-------------------|
|-------------------------|-------------------|
|--10-------8-10---8-10---|-10---8---10-------|
|-------------------------|-------------------|
|-------------------------|-------------------|
|-------------------------|-------------------|


  Eb5                  Bb5
   E E E  E E  E E E    E E E E E E E E
   | | |  | |  | | |    | | | | | | | |
   / / /  / /  / / /    / / / / / / / /

   E E E  E E  E E E    E E E E E E E E
|--------------------|-------------------|
|--------------------|-------------------|
|--8-8-8--8-8--8-8-8-|--7-7-7-7-7-7-7-7--|
|--------------------|-------------------|
|--------------------|-------------------|
|--------------------|-------------------|
|
|  W                    W
|--------------------|-------------------|
|--------------------|-------------------|
|--------------------|-------------------|
|--------------------|-------------------|
|--------------------|-------------------|
|--------------------|-------------------|
|
|  Q   E  Q    Q   E    Q   Q   H
|--------------------|-------------------|
|--------------------|------9------------|
|-10---8-10---10---8-|-10-------8--------|
|--------------------|-------------------|
|--------------------|-------------------|
|--------------------|-------------------|


  Ab5
   E E  E E  E E  E E    E E  E E  E E  E E
   | |  | |  | |  | |    | |  | |  | |  | |
   / /  / /  / /  / /    / /  / /  / /  / /

   E E  E E  E E  E E    E E  E E  E E  E E
|---------------------|---------------------|
|---------------------|---------------------|
|--8-8--8-8--8-8--8-8-|--8-8--8-8--8-8--8-8-|
|---------------------|---------------------|
|---------------------|---------------------|
|---------------------|---------------------|
|
| Gtr V
|  E E  E E  Q    E E    E E  E E  Q    E E
|---------------------|---------------------|
|---------------------|---------------------|
|-10-8-10-8-10---10-8-|-10-8-10-8-10---10-8-|
|---------------------|---------------------|
|---------------------|---------------------|
|---------------------|---------------------|


  Eb5                  Bb5
   E E  E E  E E E E    E  E E E E E E E
   | |  | |  | | | |    |  | | | | | | |
   / /  / /  / / / /    /  / / / / / / /

   E E  E E  E E E E    E  E E E E E E E
|--------------------|--------------------|
|--------------------|--------------------|
|--8-8--8-8--8-8-8-8-|--7--7-7-7-7-7-7-7--|
|--------------------|--------------------|
|--------------------|--------------------|
|--------------------|--------------------|
|
|  E E  E E  Q   E E   +W
|--------------------|--------------------|
|----------------9---|--------------------|
|-10-8-10-8-10-----8-|-(8)----------------|
|--------------------|--------------------|
|--------------------|--------------------|
|--------------------|--------------------|


  Ab5
  E E E E E E E E    E  E E   E    E    E    E    E
  | | | | | | | |    |  | |   |    |    |    |    |
  / / / / / / / /    /  / /   /    /    /    /    /

  E E E E E E E E    E  E E   E    E    E    E    E
|-----------------|----------------------------------|
|-----------------|----------------------------------|
|-8-8-8-8-8-8-8-8-|--8--8-8---8----8----8----8----8--|
|-----------------|----------------------------------|
|-----------------|----------------------------------|
|-----------------|----------------------------------|
|
| W                 +W
|-----------------|----------------------------------|
|-----------------|----------------------------------|
|-----------------|----------------------------------|
|-6---------------|-(6)------------------------------|
|-----------------|----------------------------------|
|-----------------|----------------------------------|
|
| Gtr IV
| W                  Q.       E    E    E    E    E
|-----------------|---------(11)-(11)-(11)-(11)-(11)-|
|-----------------|----------------------------------|
|-----------------|-----------8----8----8----8----8--|
|-----------------|----------------------------------|
|-----------------|----------------------------------|
|-----------------|----------------------------------|


    W                                    W
    W                                    W
|------------------------------------|-------------------------------------|
|------------------------------------|-------------------------------------|
|------------------------------------|-------------------------------------|
|------------------------------------|-------------------------------------|
|------------------------------------|-------------------------------------|
|------------------------------------|-------------------------------------|
|
|   W                                    W
|------------------------------------|-------------------------------------|
|------------------------------------|-------------------------------------|
|------------------------------------|-------------------------------------|
|------------------------------------|-------------------------------------|
|------------------------------------|-------------------------------------|
|------------------------------------|-------------------------------------|
|
|  +E   Q     E    E    E    E    E     +E   Q     E    E    E    E    E
|-(11)-(8)--(11)-(11)-(11)-(11)-(11)-|-(11)-(6)--(11)-(11)-(11)-(11)-(15)--|
|------------------------------------|-------------------------------------|
|--(8)--5-----8----8----8----8----8--|--(8)--3-----8----8----8----8---12---|
|------------------------------------|-------------------------------------|
|------------------------------------|-------------------------------------|
|------------------------------------|-------------------------------------|


                     Bb5
    W                  E  H..
                       |
                       /

  Gtr IV
   +E    H..          +E  Q      E    Q    E    E
|-(15)-(13)--------|-(13)------(10)-(10)--(8)-(10)-|
|------------------|-------------------------------|
|-(12)--10---------|-(10)--------7----7----5----7--|
|------------------|-------------------------------|
|------------------|-------------------------------|
|------------------|-------------------------------|
|
|   W                  W
|------------------|-------------------------------|
|------------------|-------------------------------|
|------------------|-------------------------------|
|------------------|-------------------------------|
|------------------|-------------------------------|
|------------------|-------------------------------|


    W                W
   +E    H..         W
|-(10)-(11)--------|--------------------------------||
|------------------|--------------------------------||
|--(7)---8---------|--------------------------------||
|------------------|--------------------------------||
|------------------|--------------------------------||
|------------------|--------------------------------||
|
|   W                Q.     E    E    E    E    E
|------------------|------(11)-(11)-(11)-(11)-(11)--||
|------------------|--------------------------------||
|------------------|--------8----8----8----8----8---||
|------------------|--------------------------------||
|------------------|--------------------------------||
|------------------|--------------------------------||


 Chorus
  D5                                     Bb5
    E   E   E   E    E    E    E    E      E   E   E   E    E    E    E    E
    |   |   |   |    |    |    |    |      |   |   |   |    |    |    |    |
    /   /   /   /    /    /    /    /      /   /   /   /    /    /    /    /

  Gtr III
    E   E   E   E    E    E    E    E      E   E   E   E    E    E    E    E
|--------------------------------------|--------------------------------------|
|--13--13--13--13---13---13---13---13--|--13--13--13--13---13---13---13---13--|
|--------------------------------------|--------------------------------------|
|--------------------------------------|--------------------------------------|
|--------------------------------------|--------------------------------------|
|--------------------------------------|--------------------------------------|
|
| Gtr V
|  +E   Q       E    E    E    E    E     +E   Q       E    E    E    E    E
|-(11)-(8)----(11)-(11)-(11)-(11)-(11)-|-(11)-(6)----(11)-(11)-(11)-(11)-(15)-|
|--------------------------------------|--------------------------------------|
|--(8)--5-------8----8----8----8----8--|--(8)--3-------8----8----8----8---12--|
|--------------------------------------|--------------------------------------|
|--------------------------------------|--------------------------------------|
|--------------------------------------|--------------------------------------|


  F5                                      C5(type 2)
    E    E   E   E    E    E    E    E      E    E   E   E    E    E    E    E
    |    |   |   |    |    |    |    |      |    |   |   |    |    |    |    |
    /    /   /   /    /    /    /    /      /    /   /   /    /    /    /    /

    E    E   E   E    E    E    E    E      E    E   E   E    E    E    E    E
|---------------------------------------|----------------------------------------|
|--10---10--10--10---10---10---10---10--|----------------------------------------|
|---------------------------------------|--12---12--12--12---12---12---12---12---|
|---------------------------------------|----------------------------------------|
|---------------------------------------|----------------------------------------|
|---------------------------------------|----------------------------------------|
|
|  +E    Q       E    E    E    E    E     +E    Q       E    E    E    E    E
|-(15)-(13)----(11)-(11)-(11)-(11)-(13)-|-(13)-(10)----(10)-(10)-(10)-(10)-(11)--|
|---------------------------------------|----------------------------------------|
|-(12)--10-------8----8----8----8---10--|-(10)---7-------7----7----7----7----8---|
|---------------------------------------|----------------------------------------|
|---------------------------------------|----------------------------------------|
|---------------------------------------|----------------------------------------|


  D5                                     Bb5
    E   E   E   E    E    E    E    E      E   E   E   E    E    E    E    E
    |   |   |   |    |    |    |    |      |   |   |   |    |    |    |    |
    /   /   /   /    /    /    /    /      /   /   /   /    /    /    /    /

    E   E   E   E    E    E    E    E      E   E   E   E    E    E    E    E
|--------------------------------------|--------------------------------------|
|--13--13--13--13---13---13---13---13--|--13--13--13--13---13---13---13---13--|
|--------------------------------------|--------------------------------------|
|--------------------------------------|--------------------------------------|
|--------------------------------------|--------------------------------------|
|--------------------------------------|--------------------------------------|
|
|  +E   Q       E    E    E    E    E     +E   Q       E    E    E    E    E
|-(11)-(8)----(11)-(11)-(11)-(11)-(11)-|-(11)-(6)----(11)-(11)-(11)-(11)-(15)-|
|--------------------------------------|--------------------------------------|
|--(8)--5-------8----8----8----8----8--|--(8)--3-------8----8----8----8---12--|
|--------------------------------------|--------------------------------------|
|--------------------------------------|--------------------------------------|
|--------------------------------------|--------------------------------------|


  F5                                      C5(type 2)
    E    E   E   E    E    E    E    E      E    E   E  E  E   E    E   E
    |    |   |   |    |    |    |    |      |    |   |  |  |   |    |   |
    /    /   /   /    /    /    /    /      /    /   /  /  /   /    /   /

    E    E   E   E    E    E    E    E      E    E   E  E  E   E    E   E
|---------------------------------------|-----------------------------------|
|--10---10--10--10---10---10---10---10--|-----------------------------------|
|---------------------------------------|--12---12--12-12-12--12---12--12---|
|---------------------------------------|-----------------------------------|
|---------------------------------------|-----------------------------------|
|---------------------------------------|-----------------------------------|
|
|  +E    Q       E    E    E    E    E     +E    H            +E    E  +E
|-(15)-(13)----(11)-(11)-(11)-(11)-(13)-|-(13)-(10)----------(10)-(11)------|
|---------------------------------------|-----------------------------------|
|-(12)--10-------8----8----8----8---10--|-(10)---7------------(7)---8--(8)--|
|---------------------------------------|-----------------------------------|
|---------------------------------------|-----------------------------------|
|---------------------------------------|-----------------------------------|


  Bb5                             C5(type 2)
    E   E  E   E   E  E   E   E     E   E  E  E  E  E   E   E
    |   |  |   |   |  |   |   |     |   |  |  |  |  |   |   |
    /   /  /   /   /  /   /   /     /   /  /  /  /  /   /   /

    E   E  E   E   E  E   E   E     E   E  E  E  E  E   E   E
|-------------------------------|-----------------------------|
|-------------------------------|-----------------------------|
|--10--10-10--10--10-10--10--10-|--12--12-12-12-12-12--12--12-|
|-------------------------------|-----------------------------|
|-------------------------------|-----------------------------|
|-------------------------------|-----------------------------|
|
|   Q.         Q.         Q        +H.                  Q
|-(10)-------(11)-------(18)----|-(18)----------------(11)----|
|------------------------11-----|-(11)------------------------|
|---7----------8----------------|-----------------------8-----|
|-------------------------------|-----------------------------|
|-------------------------------|-----------------------------|
|-------------------------------|-----------------------------|


  D5(type 2)                          C5(type 2)
    E   E  E   E   E  E   E       E     E   E  E   E    E    E    E    E
    |   |  |   |   |  |   |       |     |   |  |   |    |    |    |    |
    /   /  /   /   /  /   /       /     /   /  /   /    /    /    /    /

    E   E  E   E   E  E   E       E     E   E  E   E    E    E    E    E
|-----------------------------------|--------------------------------------|
|--10--10-10--10--10-10--10------10-|--------------------------------------|
|-----------------------------------|--12--12-12--12---12---12---12---12---|
|-----------------------------------|--------------------------------------|
|-----------------------------------|--------------------------------------|
|-----------------------------------|--------------------------------------|
|
|   Q.         Q.         Q            +Q.         E    E    E    E    E
|-(10)-------(11)-------(18)b20=====|=(18)r======(18)-(18)-(18)-(11)-(11)--|
|------------------------11b13======|=(11)r======(11)-(11)-(11)------------|
|---7----------8--------------------|--------------8----8----8----8----8---|
|-----------------------------------|--------------------------------------|
|-----------------------------------|--------------------------------------|
|-----------------------------------|--------------------------------------|


  D5                                     Bb5
    E   E   E   E    E    E    E    E      E   E   E   E    E    E    E    E
    |   |   |   |    |    |    |    |      |   |   |   |    |    |    |    |
    /   /   /   /    /    /    /    /      /   /   /   /    /    /    /    /

    E   E   E   E    E    E    E    E      E   E   E   E    E    E    E    E
|--------------------------------------|--------------------------------------|
|--13--13--13--13---13---13---13---13--|--13--13--13--13---13---13---13---13--|
|--------------------------------------|--------------------------------------|
|--------------------------------------|--------------------------------------|
|--------------------------------------|--------------------------------------|
|--------------------------------------|--------------------------------------|
|
|  +E   Q       E    E    E    E    E     +E   Q       E    E    E    E    E
|-(11)-(8)----(11)-(11)-(11)-(11)-(11)-|-(11)-(6)----(11)-(11)-(11)-(11)-(15)-|
|--------------------------------------|--------------------------------------|
|--(8)--5-------8----8----8----8----8--|--(8)--3-------8----8----8----8---12--|
|--------------------------------------|--------------------------------------|
|--------------------------------------|--------------------------------------|
|--------------------------------------|--------------------------------------|


  F5                             C5(type 2)
    E    E    E  E  E  E  E  E     E   E  E   E    E   E  E    E
    |    |    |  |  |  |  |  |     |   |  |   |    |   |  |    |
    /    /    /  /  /  /  /  /     /   /  /   /    /   /  /    /

    E    E    E  E  E  E  E  E     E   E  E   E    E   E  E    E
|------------------------------|-----------------------------------||
|--10---10---10-10-10-10-10-10-|-----------------------------------||
|------------------------------|--12--12-12--12---12--12-12---12---||
|------------------------------|-----------------------------------||
|------------------------------|-----------------------------------||
|------------------------------|-----------------------------------||
|
|  +E    H..                      +E   Q      E    Q      E    E
|-(15)-(13)--------------------|-(13)-------(10)-(10)----(8)-(10)--||
|------------------------------|-----------------------------------||
|-(12)--10---------------------|-(10)---------7----7------5----7---||
|------------------------------|-----------------------------------||
|------------------------------|-----------------------------------||
|------------------------------|-----------------------------------||


 Outro
  F5                                              C5(type 2)
    E    E     E    E  E E   E  E     E  E   E  E   E  E   E  E
    |    |     |    |  | |   |  |     |  |   |  |   |  |   |  |
    /    /     /    /  / /   /  /     /  /   /  /   /  /   /  /

    E    E     E    Q.       Q        Q      Q      Q      Q
|------------------13-------------|--13------------13-----------|
|--10h==11----13------------13----|---------13------------13----|
|---------------------------------|-----------------------------|
|---------------------------------|-----------------------------|
|---------------------------------|-----------------------------|
|---------------------------------|-----------------------------|
|
|  +E    H..                          W
|-(10)-(11)-----------------------|-----------------------------|
|---------------------------------|-----------------------------|
|--(7)---8------------------------|-----------------------------|
|---------------------------------|-----------------------------|
|---------------------------------|-----------------------------|
|---------------------------------|-----------------------------|
|
| Gtr IV
|   E    E     E    Q.       Q        Q      Q      Q      Q
|-----------------(13)------------|-(13)----------(13)----------|
|-(10)h(11)--(13)----------(13)---|--------(13)----------(13)---|
|------------------10-------------|--10------------10-----------|
|---7----8----10------------10----|---------10------------10----|
|---------------------------------|-----------------------------|
|---------------------------------|-----------------------------|


  Bb5                                            C5(type 2)
    E    E    E    E  E E   E  E     E  E   E  E   E  E   E  E
    |    |    |    |  | |   |  |     |  |   |  |   |  |   |  |
    /    /    /    /  / /   /  /     /  /   /  /   /  /   /  /

    E    E    E    Q.       Q        Q      Q      Q      Q
|-----------------13-------------|--13------------13------------|
|--10h==11---13------------13----|---------13------------13-----|
|--------------------------------|------------------------------|
|--------------------------------|------------------------------|
|--------------------------------|------------------------------|
|--------------------------------|------------------------------|
|
|   W                                W
|--------------------------------|------------------------------|
|--------------------------------|------------------------------|
|--------------------------------|------------------------------|
|--------------------------------|------------------------------|
|--------------------------------|------------------------------|
|--------------------------------|------------------------------|
|
|   E    E    E    Q.       Q        Q      Q      Q      Q
|----------------(13)------------|-(13)----------(13)-----------|
|-(10)h(11)-(13)----------(13)---|--------(13)----------(13)----|
|-----------------10-------------|--10------------10------------|
|---7----8---10------------10----|---------10------------10-----|
|--------------------------------|------------------------------|
|--------------------------------|------------------------------|


  F5                                             C5(type 2)
    E    E    E    E  E E   E  E     E  E   E  E   E  E   E  E
    |    |    |    |  | |   |  |     |  |   |  |   |  |   |  |
    /    /    /    /  / /   /  /     /  /   /  /   /  /   /  /

    E    E    E    Q.       Q        Q      Q      Q      Q
|-----------------13-------------|--13------------13-----------|
|--10h==11---13------------13----|---------13------------13----|
|--------------------------------|-----------------------------|
|--------------------------------|-----------------------------|
|--------------------------------|-----------------------------|
|--------------------------------|-----------------------------|
|
| Gtr IV
|   E    E    E    Q.       Q        Q      Q      Q      Q
|----------------(13)------------|-(13)----------(13)----------|
|-(10)h(11)-(13)----------(13)---|--------(13)----------(13)---|
|-----------------10-------------|--10------------10-----------|
|---7----8---10------------10----|---------10------------10----|
|--------------------------------|-----------------------------|
|--------------------------------|-----------------------------|


  Bb5                                            C5(type 2)
    E    E    E    E  E E   E  E     E  E   E  E   E  E   E  E
    |    |    |    |  | |   |  |     |  |   |  |   |  |   |  |
    /    /    /    /  / /   /  /     /  /   /  /   /  /   /  /

    E    E    E    Q.       Q        Q      Q      Q      Q
|-----------------13-------------|--13------------13------------|
|--10h==11---13------------13----|---------13------------13-----|
|--------------------------------|------------------------------|
|--------------------------------|------------------------------|
|--------------------------------|------------------------------|
|--------------------------------|------------------------------|
|
|   E    E    E    Q.       Q        Q      Q      Q      Q
|----------------(13)------------|-(13)----------(13)-----------|
|-(10)h(11)-(13)----------(13)---|--------(13)----------(13)----|
|-----------------10-------------|--10------------10------------|
|---7----8---10------------10----|---------10------------10-----|
|--------------------------------|------------------------------|
|--------------------------------|------------------------------|


  F5                                             C5(type 2)
    E    E    E    E  E E   E  E     E  E   E  E   E  E   E  E
    |    |    |    |  | |   |  |     |  |   |  |   |  |   |  |
    /    /    /    /  / /   /  /     /  /   /  /   /  /   /  /

    E    E    E    Q.       Q        Q      Q      Q      Q
|-----------------13-------------|--13------------13-----------|
|--10h==11---13------------13----|---------13------------13----|
|--------------------------------|-----------------------------|
|--------------------------------|-----------------------------|
|--------------------------------|-----------------------------|
|--------------------------------|-----------------------------|
|
|   E    E    E    Q.       Q        Q      Q      Q      Q
|----------------(13)------------|-(13)----------(13)----------|
|-(10)h(11)-(13)----------(13)---|--------(13)----------(13)---|
|-----------------10-------------|--10------------10-----------|
|---7----8---10------------10----|---------10------------10----|
|--------------------------------|-----------------------------|
|--------------------------------|-----------------------------|
|
| Gtr V
|   W                                W
|--------------------------------|-----------------------------|
|--------------------------------|-----------------------------|
|--------------------------------|-----------------------------|
|--------------------------------|-----------------------------|
|--------------------------------|-----------------------------|
|--------------------------------|-----------------------------|


  Bb5                                               C5(type 2)
    E    E    E    E  E E   E  E     E  E   E    E    E  E   E    E
    |    |    |    |  | |   |  |     |  |   |    |    |  |   |    |
    /    /    /    /  / /   /  /     /  /   /    /    /  /   /    /

    E    E    E    Q.       Q        Q      Q         Q      Q
|-----------------13-------------|--13---------------13---------------|
|--10h==11---13------------13----|---------13---------------13--------|
|--------------------------------|------------------------------------|
|--------------------------------|------------------------------------|
|--------------------------------|------------------------------------|
|--------------------------------|------------------------------------|
|
|   E    E    E    Q.       Q        Q      Q         Q      Q
|----------------(13)------------|-(13)-------------(13)--------------|
|-(10)h(11)-(13)----------(13)---|--------(13)-------------(13)-------|
|-----------------10-------------|--10---------------10---------------|
|---7----8---10------------10----|---------10---------------10--------|
|--------------------------------|------------------------------------|
|--------------------------------|------------------------------------|
|
|   W                                Q.          E    Q      E    E
|--------------------------------|-------------(10)-(10)----(8)-(10)--|
|--------------------------------|------------------------------------|
|--------------------------------|---------------7----7------5----7---|
|--------------------------------|------------------------------------|
|--------------------------------|------------------------------------|
|--------------------------------|------------------------------------|


  F5                                              C5(type 2)
    E    E     E    E  E E   E  E     E  E   E  E   E  E   E  E
    |    |     |    |  | |   |  |     |  |   |  |   |  |   |  |
    /    /     /    /  / /   /  /     /  /   /  /   /  /   /  /

    E    E     E    Q.       Q        Q      Q      Q      Q
|------------------13-------------|--13------------13-----------|
|--10h==11----13------------13----|---------13------------13----|
|---------------------------------|-----------------------------|
|---------------------------------|-----------------------------|
|---------------------------------|-----------------------------|
|---------------------------------|-----------------------------|
|
|   E    E     E    Q.       Q        Q      Q      Q      Q
|-----------------(13)------------|-(13)----------(13)----------|
|-(10)h(11)--(13)----------(13)---|--------(13)----------(13)---|
|------------------10-------------|--10------------10-----------|
|---7----8----10------------10----|---------10------------10----|
|---------------------------------|-----------------------------|
|---------------------------------|-----------------------------|
|
|  +E    H..                          W
|-(10)-(11)-----------------------|-----------------------------|
|---------------------------------|-----------------------------|
|--(7)---8------------------------|-----------------------------|
|---------------------------------|-----------------------------|
|---------------------------------|-----------------------------|
|---------------------------------|-----------------------------|


  Bb5                                               C5(type 2)
    E    E    E    E  E E   E  E     E  E   E    E    E  E   E    E
    |    |    |    |  | |   |  |     |  |   |    |    |  |   |    |
    /    /    /    /  / /   /  /     /  /   /    /    /  /   /    /

    E    E    E    Q.       Q        Q      Q         Q      Q
|-----------------13-------------|--13---------------13---------------|
|--10h==11---13------------13----|---------13---------------13--------|
|--------------------------------|------------------------------------|
|--------------------------------|------------------------------------|
|--------------------------------|------------------------------------|
|--------------------------------|------------------------------------|
|
|   E    E    E    Q.       Q        Q      Q         Q      Q
|----------------(13)------------|-(13)-------------(13)--------------|
|-(10)h(11)-(13)----------(13)---|--------(13)-------------(13)-------|
|-----------------10-------------|--10---------------10---------------|
|---7----8---10------------10----|---------10---------------10--------|
|--------------------------------|------------------------------------|
|--------------------------------|------------------------------------|
|
|   W                                Q.          E    Q      E    E
|--------------------------------|-------------(10)-(10)----(8)-(10)--|
|--------------------------------|------------------------------------|
|--------------------------------|---------------7----7------5----7---|
|--------------------------------|------------------------------------|
|--------------------------------|------------------------------------|
|--------------------------------|------------------------------------|


    >
    W                 +W
|------------------|---------*|
|------------------|---------*|
|------------------|---------*|
|---3--------------|--(3)----*|
|---3--------------|--(3)----*|
|---3--------------|--(3)----*|
|
| Gtr V
|  +E    H..          +W
|-(10)-(11)--------|-(11)----*|
|------------------|---------*|
|--(7)---8---------|--(8)----*|
|------------------|---------*|
|------------------|---------*|
|------------------|---------*|



Duration Legend
---------------
W - whole; H - half; Q - quarter; E - 8th; S - 16th; T - 32nd; X - 64th; a - acciaccatura
+ - note tied to previous; . - note dotted; .. - note double dotted
Uncapitalized letters represent notes that are staccato (1/2 duration)
Irregular groupings are notated above the duration line
Duration letters will always appear directly above the note/fret number it represents the
duration for.  Duration letters with no fret number below them represent rests.  Multi-
bar rests are notated in the form Wxn, where n is the number of bars to rest for.  Low
melody durations appear below the staff

Tablature Legend
----------------
 h   - hammer-on
 p   - pull-off
 b   - bend
 pb  - pre-bend
 r   - bend release (if no number after the r, then release immediately)
 /\  - slide into or out of (from/to "nowhere")
 s   - legato slide
 S   - shift slide
 - natural harmonic
[n]  - artificial harmonic
n(n) - tapped harmonic
 ~   - vibrato
 tr  - trill
 T   - tap
 TP  - trem. picking
 PM  - palm muting
\n/  - tremolo bar dip; n = amount to dip
 \n  - tremolo bar down
 n/  - tremolo bar up
/n\  - tremolo bar inverted dip
 =   - hold bend; also acts as connecting device for hammers/pulls
 <> - volume swell (louder/softer)
 x   - on rhythm slash represents muted slash
 o   - on rhythm slash represents single note slash

Misc Legend
-----------
 |  - bar
||  - double bar
||o - repeat start
o|| - repeat end
*|  - double bar (ending)
 :  - bar (freetime)
 $  - Segno
 &  - Coda
Tempo markers -  = BPM(8/16=s8/s16), where s8 = swing 8ths, s16 = swing 16ths


Tap to rate this tab
 
# A B C D E F G H I J K L M N O P Q R S T U V W X Y Z