Song name
# A B C D E F G H I J K L M N O P Q R S T U V W X Y Z

Boys Like Girls - Real Thing tab

Band:
Song:

Tabber: Chris (Fallenleaf)

Email: laststrawpro@gmail.com

Intro

e|-- ---------------------------------|
b|------------------------------------|
g|--7-7---3-3-------5-5---------------|
d|--7-7---3-3--5----5-5---------------|  x7
a|--5-5---1-1--5----3-3---------------|
E|-------------3----------------------|

e|-- --------------------------------|
b|-----------------------------------|
g|--7-7---3-3----5-------------------|
d|--7-7---3-3----5-------------------|
a|--5-5---1-1----3-------------------|
E|-----------------------------------|


Chorus 1

Just listen and play like it is.. i dont wanna write down how many times you strum

e|-- -----------------------------|
b|--------------------------------|
g|--7-----------------------------|
d|--7----7----9---5---------------|
a|--5----7----9---5---------------|
E|-------5----7---3---------------|

e|-- -----------------------------|
b|--------------------------------|
g|--7-----------------------------|
d|--7----7----9---5---------------|
a|--5----7----9---5---------------|
E|-------5----7---3---------------|

Chorus 2 - Play as shown

e|-- --------------------------------------------------|
b|-----------------------------------------------------|
g|--7--7--7--7--9--9--9--9--7--7--7--7--7--7--7--7-----|
d|--7--7--7--7--9--9--9--9--7--7--7--7--7--7--7--7-----|
a|--5--5--5--5--7--7--7--7--5--5--5--5--5--5--5--5-----|
E|-----------------------------------------------------|


Chorus 3 with variation - "if you can just let go"

Just listen and play like it is.. i dont wanna write down how many times you strum

e|-- -----------------------------|
b|--------------------------------|
g|--7-----------------------------|
d|--7----7----9-7-5---------------|
a|--5----7----9-7-5---------------|
E|-------5----7-5-3---------------|


Back to intro part.....
Then Chorus 1
Then Chorus 2
Then Chorus 3

Thats all i have so far... Thanks guys. Help me out during the parts i dont have please
Tap to rate this tab
 
# A B C D E F G H I J K L M N O P Q R S T U V W X Y Z