Song name
# A B C D E F G H I J K L M N O P Q R S T U V W X Y Z

Boys Like Girls - Two Is Better Than One tab

Hey guys, I'm Clarence and i just an ordinary person..
Its my first tab, so hope u guys like it..

Two Better Than One by Boys Like Girls..

Its played on Open D tuning, DADF#AD..

Verse:

D |-------0-------0-------0-------0-------0-------0-------0-------0-|
A |---0-------0-------0-------0-------0-------0-------0-------0-----|
F#|-------------3-------3-------3---------------3-------3-------3---|
D |-0---0---0-------0-------0-------0---0---0-------0-------0-------|
A |-0-------------------------------0-------------------------------|
D |-0-------------------------------0-------------------------------|

              vocal start from here : I remembered..................

D |-------0-------0-------0-------0-------0-------0-------0-|
A |---0-------0-------0-------0-------0-------0-------0-----|
F#|-------------7-------7-------7---------------0-------0---|
D |-9---9---9-------9-------9-------5---5---5-------5-------|
A |-9-------------------------------5-----------------------|
D |-9-------------------------------5-----------------------|

  ..day, you came into...............................................

D |-------0-------0-------0-------0-------0-------0-------0-|
A |---0-------0-------0-------0-------0-------0-------0-----|
F#|-------------0-------0---------------3-------3-------3---|
D |-7---7---7-------7-------0---0---0-------0-------0-------|
A |-7-----------------------0-------------------------------|
D |-7-----------------------0-------------------------------|

  ..could be something..............................................

D |-------0-------0-------0-------0-------0-------0-------0-------0-|
A |---0-------0-------0-------0-------0-------0-------0-------0-----|
F#|-------------3-------3-------3---------------7-------7-------7---|
D |-0---0---0-------0-------0-------9---9---9-------9-------9-------|
A |-0-------------------------------9-------------------------------|
D |-0-------------------------------9-------------------------------|

  ..Cause everything................you know.........................

D |-------0-------0-------0-------0-------0-------0-|
A |---0-------0-------0-------0-------0-------0-----|
F#|-------------0-------0---------------0-------0---|
D |-5---5---5-------5-------7---7---7-------7-------|
A |-5-----------------------7-----------------------|
D |-5-----------------------7-----------------------|

  ..and now.................im left.................

D |-------0-------0-------0-------0-|
A |---0-------0-------0-------0-----|
F#|-------------3-------3-------3---|
D |-0---0---0-------0-------0-------|
A |-0-------------------------------|
D |-0-------------------------------|

  ....................so maybe its..

  then repeat it again, start from the vocal..

Chorus:

D |-------0-------0-------0-------0-------0-------0-------0-------0-|
A |---0-------0-------0-------0-------0-------0-------0-------0-----|
F#|-------------0-------0-------0---------------0-------0-------0---|
D |-5---5---5-------5-------5-------7---7---7-------7-------7-------|
A |-5-------------------------------7-------------------------------|
D |-5-------------------------------7-------------------------------|

  ..True, i cant live without u.......
  ..repeat this three time..

D |-------0-------0-------0-------0-------0-------0-------0-------0-|
A |---0-------0-------0-------0-------0-------0-------0-------0-----|
F#|-------------7---------------0---------------0-------0-------0---|
D |-9---9---9-------7---7---7-------5---5---5-------5-------5-------|
A |-9---------------7---------------5-------------------------------|
D |-9---------------7---------------5-------------------------------|

  ..and you already....

D |-------0-------0-------0-------0-------0-------0-------0-------0-|
A |---0-------0-------0-------0-------0-------0-------0-------0-----|
F#|-------------7---------------0---------------3-------3-------3---|
D |-9---9---9-------7---7---7-------0---0---0-------0-------0-------|
A |-9---------------7---------------0-------------------------------|
D |-9---------------7---------------0-------------------------------|

  ..then start from the verse for the second verse and second chorus same but 
play rytheming lead, just strum it..

D |-0-0-0-0-0-0-0-0-0-||0-0-0-0-0-0-0-0-0-0-0-0-|
A |-0-0-0-0-0-0-0-0-0-||0-0-0-0-0-0-0-0-0-0-0-0-|
F#|-3-7-0-0-3-3-7-0-0-||0-0-0-0-0-0-7-0-0-7-0-3-|
D |-0-9-5-7-0-0-9-5-7-||5-7-5-7-5-7-9-7-5-9-7-0-|
A |-0-9-5-7-0-0-9-5-7-||5-7-5-7-5-7-9-7-5-9-7-0-|
D |-0-9-5-7-0-0-9-5-7-||5-7-5-7-5-7-9-7-5-9-7-0-|


Solo part:

Rythem solo:

D |-0-0/0-0/0-0-0-0-|
A |-0-0/0-0/0-0-0-0-|
F#|-0-0/7-0/0-0-0-3-|
D |-5-7/9-7/5-2-7-0-|
A |-5-7/9-7/5-2-7-0-|
D |-5-7/9-7/5-2-7-0-|

Bridge:

D |-------0-------0-------0-------0-------0-------0-------0-------0-|
A |---0-------0-------0-------0-------0-------0-------0-------0-----|
F#|-------------3-------3-------3---------------7-------7-------7---|
D |-0---0---0-------0-------0-------9---9---9-------9-------9-------|
A |-0-------------------------------9-------------------------------|
D |-0-------------------------------9-------------------------------|

  ..I remembered................

Chorus:

D |-0-0-0-0-0-0-0-0-0-||-0-0-0-0-0-0-0-0-0-0-0-0|
A |-0-0-0-0-0-0-0-0-0-||-0-0-0-0-0-0-0-0-0-0-0-0|
F#|-0-0-0-0-0-0-7-0-0-||-0-0-0-0-0-0-7-0-0-7-0-3|
D |-5-7-5-7-5-7-9-7-5-||-5-7-5-7-5-7-9-7-5-9-7-0|
A |-5-7-5-7-5-7-9-7-5-||-5-7-5-7-5-7-9-7-5-9-7-0|
D |-5-7-5-7-5-7-9-7-5-||-5-7-5-7-5-7-9-7-5-9-7-0|

  ..last chord strum once only..

Ending:

D |-------0-------0-------0-------0-------0-------0-------0-------0-|
A |---0-------0-------0-------0-------0-------0-------0-------0-----|
F#|-------------3-------3-------3---------------7-------7-------7---|
D |-0---0---0-------0-------0-------9---9---9-------9-------9-------|
A |-0-------------------------------9-------------------------------|
D |-0-------------------------------9-------------------------------|

D |-0-0-0-|
A |-0-0-0-|
F#|-7-0-0-|
D |-9-7-0-|
A |-9-7-0-|
D |-9-7-0-| ..Last chords strum once..

..The End of a Great Song!!!!!!!!!!!!!!!!!!!!!!!!!!!!!!!!

..Contact me, kidslovecakes@gmail.com
Tap to rate this tab
# A B C D E F G H I J K L M N O P Q R S T U V W X Y Z