Song name
# A B C D E F G H I J K L M N O P Q R S T U V W X Y Z

Boys Like Girls - Heart Heart Heartbreak tab

-------------------------------------------------------------------------------
			   Heart Heart Heartbreak (solo)
-------------------------------------------------------------------------------
Tabbed by:mattdef128
Email:mattdef128@aim.com

Tuning: Standard

e|------------------------------------------------------8p5---8p5---8p5---8p5---|
B|------------------------5~-----------------5b6-----------8p5---8p5---8p5---8p5|
G|------5/7---7-5-7--7-5-7------5h7-5-7-5-7-7-----5-----------------------------|
D|------------------------------------------------------------------------------|
A|------------------------------------------------------------------------------|
E|------------------------------------------------------------------------------|

e|---10p8----10p8----10p8----10p8-----12p10-----12p10------15p10-----15p10------|
B|-------10p8----10p8----10p8----10p8------13p10-----13p10------15p10-----15p10-|
G|------------------------------------------------------------------------------|
D|------------------------------------------------------------------------------|
A|------------------------------------------------------------------------------|
E|------------------------------------------------------------------------------|

e|--15b16-15b16-15/0------------------------------------------------------------|
B|------------------------------------------------------------------------------|
G|------------------------------------------------------------------------------|
D|------------------------------------------------------------------------------|
A|------------------------------------------------------------------------------|
E|------------------------------------------------------------------------------|

Tap to rate this tab
 
# A B C D E F G H I J K L M N O P Q R S T U V W X Y Z