Song name
# A B C D E F G H I J K L M N O P Q R S T U V W X Y Z

Boys Like Girls - I Told You So tab

Strummings pretty simple just listen.Someone else really needs to finish this song its a 
one.

-----0---------0---------0---------0-----------------]
-----3---------3---------3---------3-----------------]
-----2---------2---------2---------0--ring-----------]
-----0---------2---------0---------2-----------------]
-----0---------0---------2---------3-----------------]
-----------------------------------------------------]


-----------------------------------------------------]
-----------------------------------------------------]
----7----------6----------8---------9----------------]
----x--18x-----x---18x----x--slide--x----------------]
----5----------4----------6---------7----------------]
-----------------------------------------------------]
Tap to rate this tab
# A B C D E F G H I J K L M N O P Q R S T U V W X Y Z