Song name
# A B C D E F G H I J K L M N O P Q R S T U V W X Y Z

Boys Like Girls - Two Is Better Than One Acoustic tab

Tabbed By:0nin n' Wilbert..

HI TO ALL NYABAGZ!!... :D

this is the acoustic version from their live performance at 
iheart radio... i think it is 100% accurate.

heres the link: http://www.youtube.com/watch?v=fg8nEmTx7EI

|---------------------------------------------------|
|  the tuning for this song would be E-A-D-Gb-B-e   |
|  you just tune the 3rd string half step lower     |
|---------------------------------------------------|

INTRO

guitar 1 - rhythm	

e |--------------------------|	  			   
B |-------0----0----0----0---|	  			   
Gb|-----0----0----0----0-----|
D |---4----4----4----4-------|
A |-2------------------------|
E |--------------------------|




VERSE 1 

guitar 1 - rhythm
  
e |--------------------------|-----------------------|
B |-------0----0----0----0---|--------0----0----0----|
Gb|-----0----0----0----0-----|------0----0----0------| 
D |---4----4----4----4-------|----4----4----4--------|	   
A |-2------------------------|-----------------------|	   
E |--------------------------|-4---------------------|	   
							   	
e |--------------------------|-----------------------|	  
B |--------0----0----0----0--|--------0----0----0----|	  
Gb|------0----0----0----0----|------0----0----0------| 
D |----2----2----2----2------|----4----4----4--------|	   
A |--------------------------|-----------------------|	  
E |-0------------------------|-2---------------------|	   
			  		                 
e |--------------------------|	  		     	  
B |-------0----0----0----0---|	  			   
Gb|-----0----0----0----0-----|
D |---4----4----4----4-------|
A |-2------------------------|
E |--------------------------| play the whole verse 2x


guitar 2 - lead

(play this in the second part of verse 1)

e |-----------------------------------|
B |-----------------------------------|
Gb|-5-5-5-5-5--12-12-16-14------------|
D |-----------------------------------|
A |-----------------------------------|
E |-----------------------------------|

e |------------------------------------------------------|
B |------------------------------------------------------|
Gb|-14-14-14-14-14-14-12-10-10-10-10-12-12-12-12-12-5-5--| 
D |------------------------------------------------------|
A |------------------------------------------------------|
E |------------------------------------------------------|




CHORUS

guitar 1 - rhythm

e |--------------------------|-----------------------|
B |--------0----0----0----0--|--------0----0----0----|
Gb|------0----0----0----0----|------0----0----0------|
D |----2----2----2----2------|----4----4----4--------| <<--play this 3x
A |--------------------------|-----------------------|	  
E |-0------------------------|-2---------------------|

e |----------------|----------------|-------------------------|
B |--------0----0--|--------0----0--|--------0----0----0----0-|
Gb|------0----0----|------0----0----|------0----0----0----0---|
D |----4----4------|----4----4------|----2----2----2----2-----| 
A |----------------|----------------|-------------------------|	  
E |-4--------------|-2--------------|-0-----------------------|


e |----------------|----------------|-------------------------|
B |--------0----0--|--------0----0--|-------0----0----0----0--|
Gb|------0----0----|------0----0----|-----0----0----0----0----|
D |----4----4------|----4----4------|---4----4----4----4------| 
A |----------------|----------------|-2-----------------------|	  
E |-4--------------|-2--------------|-------------------------|

guitar 2 - lead

e |----------------------|
B |--0-0-0-0----0-0-0-0--|
Gb|--0-0-0-0----0-0-0-0--|
D |--2-2-2-2----4-4-4-4--| play this 3 times
A |--2-2-2-2----4-4-4-4--|	  
E |--0-0-0-0----2-2-2-2--|

e |--------------|-----------------|
B |-00-00-0000---|---00-00-0000----|
Gb|-00-00-0000---|---00-00-0000----|
D |-66-44-2222---|---66-44-4444----| 
A |-66-44-2222---|---66-44 2222----|	  
E |-44-22-0000---|---44-22-xxxx----|





VERSE 2

guitar 1 - rhythm
 
e |--------------------------|-----------------------|
B |-------0----0----0----0---|--------0----0----0----|
Gb|-----0----0----0----0-----|------0----0----0------| 
D |---4----4----4----4-------|----4----4----4--------|	   
A |-2------------------------|-----------------------|	   
E |--------------------------|-4---------------------|	   
							   	
e |--------------------------|-----------------------|	  
B |--------0----0----0----0--|--------0----0----0----|	  
Gb|------0----0----0----0----|------0----0----0------| 
D |----2----2----2----2------|----4----4----4--------|	   
A |--------------------------|-----------------------|	  
E |-0------------------------|-2---------------------|	   
			  		                 
e |--------------------------|	  		     	  
B |-------0----0----0----0---|	  			   
Gb|-----0----0----0----0-----|
D |---4----4----4----4-------|
A |-2------------------------|
E |--------------------------| play the whole verse 2x

guitar 2 - lead


e |-----------------------------------------------------|
B |-----------------------------------------------------| 
Gb|-9-9-9-9-9-9-12-12-9-9-9-9-9-9-12-12-5-5-5-5-7-7-7-7-| <<--|
D |-----------------------------------------------------|     |  
A |-----------------------------------------------------|     | 
E |-----------------------------------------------------|     | play this 2x
                                                              |    
e |-------------------|                                       |    
B |-------------------|                                       |   
Gb|-4-5-5-12-12-4-4-5-|                                       |   
D |-------------------|    <<---------------------------------|   
A |-------------------|
E |-------------------| 





CHORUS

guitar 1 - rhythm


e |--------------------------|-----------------------|
B |--------0----0----0----0--|--------0----0----0----|
Gb|------0----0----0----0----|------0----0----0------|
D |----2----2----2----2------|----4----4----4--------| play this 3x
A |--------------------------|-----------------------|	  
E |-0------------------------|-2---------------------|

e |----------------|----------------|-------------------------|
B |--------0----0--|--------0----0--|--------0----0----0----0-|
Gb|------0----0----|------0----0----|------0----0----0----0---|
D |----4----4------|----4----4------|----2----2----2----2-----| 
A |----------------|----------------|-------------------------|	  
E |-4--------------|-2--------------|-0-----------------------|

e |----------------|----------------|-------------------------|
B |--------0----0--|--------0----0--|-------0----0----0----0--|
Gb|------0----0----|------0----0----|-----0----0----0----0----|
D |----4----4------|----4----4------|---4----4----4----4------| 
A |----------------|----------------|-2-----------------------|	  
E |-4--------------|-2--------------|-------------------------|

guitar 2 - lead

e |----------------------|
B |--0-0-0-0----0-0-0-0--|
Gb|--0-0-0-0----0-0-0-0--|
D |--2-2-2-2----4-4-4-4--| play this 3x
A |--2-2-2-2----4-4-4-4--|	  
E |--0-0-0-0----2-2-2-2--|

e |--------------|-----------------|
B |-00-00-0000---|---00-00-0000----|
Gb|-00-00-0000---|---00-00-0000----|
D |-66-44-2222---|---66-44-4444----| 
A |-66-44-2222---|---66-44 2222----|	  
E |-44-22-0000---|---44-22-xxxx----|





SOLO or BRIDGE

guitar 1 - rhythm

e |-------------------------------------------|
B |--0-0-0-0--0-0-0-0--0-0-0-0--0-0-0-0--0----|
Gb|--0-0-0-0--0-0-0-0--0-0-0-0--0-0-0-0--0----|
D |--4-4-4-4--6-6-4-4--2-2-2-2--4-4-6-6--4----|
A |--2-2-2-2--6-6-4-4--2-2-2-2--4-4-6-6--2----|	  
E |--x-x-x-x--4-4-2-2--0-0-0-0--2-2-4-4--x----|


guitar 2 - lead

e |-----------------------------------------------|
B |-----------------------------------------------|
Gb|-4-5-5-12-12-4-4-5-4-5-5-4-4-0-0-0-0-----------|
D |-----------------------------------------------|
A |-----------------------------------------------|
E |-----------------------------------------------|

e |---------------------------------------------------|
B |---------------------------------------------------|
Gb|-4-5-5-12-12-12-12-12-12-7-7s9-9-9-9-9-7-7-7-7-5---|
D |---------------------------------------------------|
A |---------------------------------------------------|
E |---------------------------------------------------|




FILL TO LAST CHORUS

	i remember what you wore on the first day
e |--------------------------|-----------------------|
B |-------0----0----0----0---|--------0----0----0----|
Gb|-----0----0----0----0-----|------0----0----0------| 
D |---4----4----4----4-------|----4----4----4--------|	   	
A |-2------------------------|-----------------------|	  	
E |--------------------------|-4---------------------|	  	

	you came into my life and i though hey...   
e |--------------------------|  
B |--------0----0----0----0--|	   
Gb|------0----0----0----0----|
D |----2----2----2----2------|	 
A |--------------------------|  
E |-0------------------------|



REPEAT CHORUS 2 TIMES

OUTRO/REPEAT VERSE 1






----------the end-----------------

ROCK 'N ROLL!!!
Tap to rate this tab
 
# A B C D E F G H I J K L M N O P Q R S T U V W X Y Z