Song name
# A B C D E F G H I J K L M N O P Q R S T U V W X Y Z

Boys Like Girls - Two Is Better Than One tab

Song: Two Is Better Than One
Artist: Boys Like Girls

standard tuning: EADGBe

Im pretty sure this tab is correct. also >> in the actual song, i think the guitar's E 
is dropped to a C, but this tabs sounds really close . .
Also, in the chorus, just finger pick the chords, or strum if you want to, but if you 
the chords, you might want to do the "standard" G and Am and F ect . . .

VERSE 1

              C
e|-------------------------------------|
B|-------1--------1-------1--------1---|
G|---0--------0-------0--------0-------|   x2
D|-----2----------------2--------------|
A|-3------------3----------------3-----|
E|-------------------------------------|

I remember what you wore on the first day

          some type of [Am]
e|---------------------------------------|
B|-------1-------1--------1--------1-----|
G|---4-------4--------4--------4---------|
D|-----2----------------2----------------|
A|-0-----------0-----------------0-------|
E|---------------------------------------|
You came into my life and I thought hey

           F            G
e|---------------------------------------|
B|-------1------1------------1-------1---|
G|---0------0------------4-------4-------|
D|-----3------3------------0-------0-----|
A|---------------------------------------|
E|-1-------------------3-----------------|
You know this could be something
              C
e|-------------------------------------|
B|-------1--------1-------1--------1---|
G|---0--------0-------0--------0-------|
D|-----2----------------2--------------|
A|-3------------3----------------3-----|
E|-------------------------------------|

  C
Cause everything you do and words you say
  Am
You know that it all takes my breath away
 F         G                C
And I am left with nothing

CHORUS
              F
So maybe its true
              G
That I cant live without you
       F                  G
Maybe two is better than one
                 F
There's so much time
     G
To figure out the rest of my life
 Am                     G          F
And you've already got me coming undone
             Am       G          C
I'm thinking two is better than one

VERSE 2
 C                                Am
I remember every look upon your face

The way you roll your eyes
             F
The way you taste
              G                C
You make it hard for breathing
 C
Cause when i close my eyes and drift away
 Am
I think of you and everything's okay
 F           G             C
I'm finally now believing

CHORUS
                 F
Then maybe its true
              G
That I cant live without you
       F                  G
Maybe two is better than one
                 F
There's so much time
     G
To figure out the rest of my life
 Am                     G          F
And you've already got me coming undone
             Am       G          C
I'm thinking two is better than one

BRIDGE

C - Am - F - G

C                                         Am
I remember what you wore on the first day

You came into my life
                F
And i thought hey

OUTRO
              F
And maybe it's true
              G
That I cant live without you
       F                  G
Maybe two is better than one
                 F
There's so much time
      G
To figure out the rest of my life
              Am        G           F
And you've already got me coming undone
          G            F
And I'm thinking oooooohhhh
      G
That I cant live without you
             F                  G
Cause maybe two is better than one
                     F
There's so much time
      G
To figure out the rest of my life
            Am
But I've figured out
      G                F
When all is said and done
 Am      G          C     Am
Two is better than one
 F       G          C
Two is better than one.
Tap to rate this tab
# A B C D E F G H I J K L M N O P Q R S T U V W X Y Z