Song name
# A B C D E F G H I J K L M N O P Q R S T U V W X Y Z

Boys Like Girls - Two Is Better Than One tab

H! pOh 2 aLL!.. I jUsT wanna say hELLow! to my members 
in oUr GuiLd – 'AYELSKIE' Class S yata kamI!!! For keeping up
a good GuiLd…!^^

this song had a mUsic video that shows pAst mEmoRies

trully, Past Memories really hurts.

thinking of those special moment, really reminiscing. Those treasurable 
minutes that you share with each other, is like a picture of happiness
by forgetting what would happen about tomorrow!, but the hurting part 
is you cannot bring back or live that moments unlike Yesterday.




INTRO



e |----0--0--0--0----|
B |--0--0--0--0------|
G |------------------|
D |-2-2--2--2--2-----|
A |------------------|
E |------------------|



VERSE 1



E
 I remember what you wore on the first day
B\E
  You came into my life and I thought, Hey
C#m             A4                  E
  You know this could be something  


E
 Cause' everything you do and words you say
B\E
  You know that it all takes my breath away
C#m          A4                  E
  And now I'm left with nothing 



CHORUS


              C#m  A4
So maybe, its true
             E
that I can't live without you
      C#m A4             E
Maybe two  is better than one
                C#m  A4
There's so much time
E
to figure out the rest of my life
         B\E           E          A4
And you've already got me coming undone
                 C#m      A4        E
And I'm thinking two is better than one



VERSE 2



E                               B\E
I remember every look upon your face

the way you roll your eyes
           C#m
the way it taste
           A4                  E
To make it hard for breathing


E                                     B\E
Cause when I close my eyes I'm drift away
                                C#m
I think of you and everything's okay
             A4            E
I'm finally now believing



CHORUS


              C#m  A4
So maybe, its true
             E
that I can't live without you
      C#m A4             E
Maybe two  is better than one
                C#m  A4
There's so much time
E
to figure out the rest of my life
         B\E           E          A4
And you've already got me coming undone
                 C#m      A4       
And I'm thinking two is better than 



BRIDGE


        B\E                 E       A4
Ohh..wa..ahh...........one 


     |--------------------------------|
     | make it plucking in this part  |
     | this is the part where it slows|
     |--------------------------------|


e |----0--0--0--0----|----0--0--0--0--|
B |--0--0--0--0------|--0--0--0--0----|
G |------------------|----------------|
D |-2-2--2--2--2-----|-7-7--7--7--7---|
A |------------------|----------------|
E |------------------|----------------|
   I remember......... day

e |----0--0|
B |--0--0--|
G |--------|
D |--------|
A |-0-0--0-|
E |--------|
   "Hey"....



CHORUS


           C#m  A4
Maybe, its true
             E
that I can't live without you
      C#m A4             E
Maybe two  is better than one
                C#m  A4
There's so much time
  E
to figure out the rest of my life
         B\E           E         A4
And you've already got me coming undone


                  C#m  A4
And I'm thinking, Ohh......
        E
I can't live without you
      C#m A4             E
Maybe two  is better than one
                C#m  A4
There's so much time
   E
to figure out the rest of my life
         B\E             E               A4
But I'll figure out when all is said and done  
C#m      A4     
Two is better than one


e |----0--0--0--0----|----0--0--0--0--|
B |--0--0--0--0------|--0--0--0--0----|
G |------------------|----------------|
D |-2-2--2--2--2-----|-7-7--7--7--7---|
A |------------------|----------------|
E |------------------|----------------|

e |----0--0|----0--0|----------|
B |--0--0--|--0--0--|----------|
G |--------|--------|-1--------|
D |--------|--------|-2--------|
A |-4-4--4-|-0-0--0-|-2--------|
E |--------|--------|----------|
   Two....  Better..  One.




 

  I dedicate this tabZ to my 2 Dameans for part of my 
  life.Trully,love is exploding in the air as we celebrete 
  the coming of Valentines Day!...^^
  Hope U are Happy!



  --------------------the-end--------------------------
Tap to rate this tab
# A B C D E F G H I J K L M N O P Q R S T U V W X Y Z