Song name
# A B C D E F G H I J K L M N O P Q R S T U V W X Y Z

Boys Like Girls - Love Drunk tab

Tabbed By: Charley Holmes 
Contact Info: 
Msn - AbbzGoesRaWr@live.co.uk

****************************************************************************
Key:
h = hammer-on
PM = palm mute
x = mute
~ = hold note
\ = slide down
****************************************************************************
TUNING:

OPEN D FOR GUITAR I (RHYTHM); CAPO 1; CAPO 3 ON THE LAST CHORUS.
DROP D FOR GUITAR II (LEAD); NO CAPO.
****************************************************************************
GUITAR I (RHYTHM)-
OPEN D TUNING (D A D F# a d)
CAPO 1
***RELATIVE TO CAPO.***

Intro:

"(Na na na na na na na na na)...."

d)--0~-0-0~-0~---00000000-00000000-|
a)--0~-0-0~-0~---00000000-00000000-|
F#)-0~------0~---------------------|
D)--0~-7-5~-0~-7-55555555-77777777-|
A)--0~-7-5~-0~-7-55555555-77777777-|
D)--0~-7-5~-0~-7-55555555-77777777-|
"(Hey!  Hey!  Hey!  Hey!)...."

Verse:

d)---------------------------------------------------------------------000-|
a)---------------------------------------------------------------------000-|
F#)------------------------------------------------------------------------|
D)--0000000000000000-55555555555555555-2222222222222222-55555555555555-777-|
A)--0000000000000000-55555555555555555-2222222222222222-55555555555555-777-|
D)--0000000000000000-55555555555555555-2222222222222222-55555555555555-777-|
PM....................................................................
"Top down in the summer sun
The day we met was like a hit and run
And I still taste it on my tongue (Taste it on my tongue)...."

d)------------------------------------------------------00000000-0-|
a)------------------------------------------------------00000000-0-|
F#)----------------------------------------------------------------|
D)--0000000000000000-55555555555555555-2222222222222222-77777777-7-|
A)--0000000000000000-55555555555555555-2222222222222222-77777777-7-|
D)--0000000000000000-55555555555555555-2222222222222222-77777777-7-|
PM....................................................
"The sky was burning up like fireworks
You made me want you oh so bad it hurts
But girl, in case you haven't heard...."

Chorus:

d)--00000000-00000000-00000000-00000000-|
a)--00000000-00000000-00000000-00000000-|
F#)-------------------00000000----------|
D)--99999999-55555555-00000000-77777777-| x2
A)--99999999-55555555-00000000-77777777-|
D)--99999999-55555555-00000000-77777777-|
"I used to be love drunk
But now I'm hungover
I love you forever
Forever is over
We used to kiss all night
Now it's just a barfight
So don't call me cryin'
Say hello to goodbye (Oh yeah!)...."

d)--00000000-00000000-00000000-00000000-|
a)--00000000-00000000-00000000-00000000-|
F#)-------------------------------------|
D)--55555555-77777777-99999999-77777777-|
A)--55555555-77777777-99999999-77777777-|
D)--55555555-77777777-99999999-77777777-|
"'Cause just one sip (Oh yeah!)
Would make me sick...."

d)--00000000-00000000-00000000-0-|
a)--00000000-00000000-00000000-0-|
F#)-------------------00000000---|
D)--99999999-55555555-00000000-7-|
A)--99999999-55555555-00000000-7-|
D)--99999999-55555555-00000000-7-|
"I used to be love drunk
But now I'm hungover
I love you forever
But now it's over...."

Fill:

d)--0000000000000000-0000000000000000-|
a)--0000000000000000-0000000000000000-|
D)--000000000000----------------------|
F#)-0000000000007777-5555555555557777-|
A)--0000000000007777-5555555555557777-|
D)--0000000000007777-5555555555557777-|
"(Hey!  Hey!  Hey!  Hey!  Hey!  Hey!  Hey!  Hey!)...."

Verse:

d)---------------------------------------------------------------------000-|
a)---------------------------------------------------------------------000-|
F#)------------------------------------------------------------------------|
D)--0000000000000000-55555555555555555-2222222222222222-55555555555555-777-|
A)--0000000000000000-55555555555555555-2222222222222222-55555555555555-777-|
D)--0000000000000000-55555555555555555-2222222222222222-55555555555555-777-|
PM....................................................................
"Hot sweat and blurry eyes
We're spinning on a roller coaster ride
With the world stuck in black and white...."

d)------------------------------------------------------00000000-0-|
a)------------------------------------------------------00000000-0-|
F#)----------------------------------------------------------------|
D)--0000000000000000-55555555555555555-2222222222222222-77777777-7-|
A)--0000000000000000-55555555555555555-2222222222222222-77777777-7-|
D)--0000000000000000-55555555555555555-2222222222222222-77777777-7-|
PM....................................................
"You drove me crazy every time we touched
Now I'm so broken that I can't get up
Oh girl, you make me such a rush...."

Chorus:

d)--00000000-00000000-00000000-00000000-|
a)--00000000-00000000-00000000-00000000-|
F#)-------------------00000000----------|
D)--99999999-55555555-00000000-77777777-| x2
A)--99999999-55555555-00000000-77777777-|
D)--99999999-55555555-00000000-77777777-|
"I used to be love drunk
But now I'm hungover
I love you forever
Forever is over
We used to kiss all night
Now it's just a barfight
So don't call me cryin'
Say hello to goodbye (Oh yeah!)...."

d)--00000000-00000000-00000000-00000000-|
a)--00000000-00000000-00000000-00000000-|
F#)-------------------------------------|
D)--55555555-77777777-99999999-77777777-|
A)--55555555-77777777-99999999-77777777-|
D)--55555555-77777777-99999999-77777777-|
"'Cause just one sip (Oh yeah!)
Would make me sick...."

d)--00000000-00000000-00000000-00000000-|
a)--00000000-00000000-00000000-00000000-|
F#)-------------------00000000----------|
D)--99999999-55555555-00000000-77777777-|
A)--99999999-55555555-00000000-77777777-|
D)--99999999-55555555-00000000-77777777-|
"I used to be love drunk
But now I'm hungover
I love you forever
But now it's over...."

Bridge:

d)--0000000000000000-0000000000000000-|
a)--0000000000000000-0000000000000000-|
F#)------------------00000000---------|
D)--5555555555555555-0000000077777777-| x2
A)--5555555555555555-0000000077777777-|
D)--5555555555555555-0000000077777777-|
"All the time I wasted on you
All the bullshit you put me through
I'm checking into rehab
'Cause everything that we had
Didn't mean a thing to you...."

d)--0000000000000000-|
a)--0000000000000000-|
F#)------------------|
D)--5555555555555555-|
A)--5555555555555555-|
D)--5555555555555555-|
"...you...."

(Strum this after "I love you forever")
d)--0-|
a)--0-|
F#)---|
D)--7-|
A)--7-|
D)--7-|
"I used to be love drunk
(But now I'm hungover)
I love you forever
But now I'm sober...."

***CAPO 3***
***RELATIVE TO CAPO.***

Chorus:

d)--00000000-00000000-00000000-00000000-|
a)--00000000-00000000-00000000-00000000-|
F#)-------------------00000000----------|
D)--99999999-55555555-00000000-77777777-| x2
A)--99999999-55555555-00000000-77777777-|
D)--99999999-55555555-00000000-77777777-|
"I used to be love drunk
But now I'm hungover
I love you forever
Forever is over
We used to kiss all night
Now it's just a barfight
So don't call me cryin'
Say hello to goodbye (Oh yeah!)...."

d)--00000000-00000000-00000000-00000000-|
a)--00000000-00000000-00000000-00000000-|
F#)-------------------------------------|
D)--55555555-77777777-99999999-77777777-|
A)--55555555-77777777-99999999-77777777-|
D)--55555555-77777777-99999999-77777777-|
"'Cause just one sip (Oh yeah!)
Would make me sick...."

d)--00000000-00000000-00000000----|
a)--00000000-00000000-00000000----|
F#)-------------------00000000----|
D)--99999999-55555555-00000000-7\-|
A)--99999999-55555555-00000000-7\-|
D)--99999999-55555555-00000000-7\-|
"I used to be love drunk
But now I'm hungover
I love you forever
But now it's...."

Outro:

d)--0000000000000000-0000000000000000-|
a)--0000000000000000-0000000000000000-|
F#)-000000000000----------------------|
D)--0000000000007777-5555555555557777-| x4
A)--0000000000007777-5555555555557777-|
D)--0000000000007777-5555555555557777-|
"...over
(Na na na na na na na na na
Na na na na na na na na na
Na na na na na na na na na
Na na na na na na na na na)
(Now it's over)
(Still taste it on my tongue)
(Now it's)...."

d)--0~-|
d)--0~-|
F#)-0~-|
D)--0~-|
A)--0~-|
D)--0~-|
"...(over)...."

****************************************************************************
GUITAR II (LEAD)-
DROP D TUNING (D A D G B e)
NO CAPO

Intro:

"(Na na na na na na na na na)...."

Tremelo picking & palm muted.
e)----|
B)----|
G)-8--|
D)----|
A)----|
D)----|
PM...

e)--------11----11----11----|
B)-8h9h11----11----11----11-|
G)--------------------------|
D)--------------------------| x4
A)--------------------------|
D)--------------------------|
"(Hey!  Hey!  Hey!  Hey!)...."

Verse:

e)------------------------------------------------------------------------|
B)------------------------------------------------------------------------|
G)------------------------------------------------------------------------|
D)-1111111111111111-66666666666666666-3333333333333333-66666666666666-888-|
A)-1111111111111111-66666666666666666-3333333333333333-66666666666666-888-|
D)-1111111111111111-66666666666666666-3333333333333333-66666666666666-888-|
PM....................................................................
"Top down in the summer sun
The day we met was like a hit and run
And I still taste it on my tongue (Taste it on my tongue)...."

e)----------------------------------------------------------------|
B)----------------------------------------------------------------|
G)----------------------------------------------------------------|
D)-1111111111111111-66666666666666666-3333333333333333-88888888-8-|
A)-1111111111111111-66666666666666666-3333333333333333-88888888-8-|
D)-1111111111111111-66666666666666666-3333333333333333-88888888-8-|
PM....................................................
"The sky was burning up like fireworks
You made me want you oh so bad it hurts
But girl, in case you haven't heard...."

Chorus:

e)------------------------------------------------------------------|
B)-(11)(11)(11)(11)(11)(11)(11)(11)(11)(11)(11)(11)(11)(11)(11)(11)-|
G)------------------------------------------------------------------|
D)------------------------------------------------------------------|
A)------------------------------------------------------------------|
D)------------------------------------------------------------------|

e)------------------------------------------|
B)-88888888---------------------------------|
G)---------(10)(10)(10)(10)(10)(10)(10)(10)-|
D)------------------------------------------| (Repeat these two lines)
A)------------------------------------------|
D)------------------------------------------|
"I used to be love drunk
But now I'm hungover
I love you forever
Forever is over
We used to kiss all night
Now it's just a barfight
So don't call me cryin'
Say hello to goodbye (Oh yeah!)...."

e)--------------------------------------------|
B)--------------------------------------------|
G)-888888888-(10)(10)(10)(10)(10)(10)(10)(10)-|
D)--------------------------------------------|
A)--------------------------------------------|
D)--------------------------------------------|
"'Cause just one sip (Oh yeah!)...."

e)------------------------------------------|
B)-88888888---------------------------------|
G)---------(10)(10)(10)(10)(10)(10)(10)(10)-|
D)------------------------------------------|
A)------------------------------------------|
D)------------------------------------------|
"Would make me sick...."

e)------------------------------------------------------------------|
B)-(11)(11)(11)(11)(11)(11)(11)(11)(11)(11)(11)(11)(11)(11)(11)(11)-|
G)------------------------------------------------------------------|
D)------------------------------------------------------------------|
A)------------------------------------------------------------------|
D)------------------------------------------------------------------|

e)--------------|
B)-88888888-----|
G)---------(10)-|
D)--------------|
A)--------------|
D)--------------|
"I used to be love drunk
But now I'm hungover
I love you forever
But now it's over...."

Fill:

e)--------11----11----11----|
B)-8h9h11----11----11----11-|
G)--------------------------|
D)--------------------------| x2
A)--------------------------|
D)--------------------------|
"(Hey!  Hey!  Hey!  Hey!  Hey!  Hey!  Hey!  Hey!)...."

Verse:

e)------------|
B)------------|
G)-8xx-8xx-8x-|
D)------------| x7
A)------------|
D)------------|

e)----------|
B)----8b9r8-|
G)-8xx------|
D)----------|
A)----------|
D)----------|
"Hot sweat and blurry eyes
We're spinning on a roller coaster ride
With the world stuck in black and white...."

e)-(11)--(11)--(11)--|
B)-------------------|
G)-----88---88-----8-|
D)-------------------| x3
A)-------------------|
D)-------------------|

e)-(11)--------|
B)-------8b9r8-|
G)-----88------|
D)-------------|
A)-------------|
D)-------------|
"You drove me crazy every time we touched
Now I'm so broken that I can't get up...."

e)-(11)--(11)--(11)--|
B)-------------------|
G)-----88---88-----8-|
D)-------------------| x3
A)-------------------|
D)-------------------|

e)-(11)\-|
B)-------|
G)-------|
D)-------|
A)-------|
D)-------|
"Oh girl, you make me such a rush...."

Chorus:

e)------------------------------------------------------------------|
B)-(11)(11)(11)(11)(11)(11)(11)(11)(11)(11)(11)(11)(11)(11)(11)(11)-|
G)------------------------------------------------------------------|
D)------------------------------------------------------------------|
A)------------------------------------------------------------------|
D)------------------------------------------------------------------|

e)------------------------------------------|
B)-88888888---------------------------------|
G)---------(10)(10)(10)(10)(10)(10)(10)(10)-|
D)------------------------------------------| (Repeat these two lines)
A)------------------------------------------|
D)------------------------------------------|
"I used to be love drunk
But now I'm hungover
I love you forever
Forever is over
We used to kiss all night
Now it's just a barfight
So don't call me cryin'
Say hello to goodbye (Oh yeah!)...."

e)--------------------------------------------|
B)--------------------------------------------|
G)-888888888-(10)(10)(10)(10)(10)(10)(10)(10)-|
D)--------------------------------------------|
A)--------------------------------------------|
D)--------------------------------------------|
"'Cause just one sip (Oh yeah!)...."

e)------------------------------------------|
B)-88888888---------------------------------|
G)---------(10)(10)(10)(10)(10)(10)(10)(10)-|
D)------------------------------------------|
A)------------------------------------------|
D)------------------------------------------|
"Would make me sick...."

e)------------------------------------------------------------------|
B)-(11)(11)(11)(11)(11)(11)(11)(11)(11)(11)(11)(11)(11)(11)(11)(11)-|
G)------------------------------------------------------------------|
D)------------------------------------------------------------------|
A)------------------------------------------------------------------|
D)------------------------------------------------------------------|

e)------------------------------------------|
B)-88888888---------------------------------|
G)---------(10)(10)(10)(10)(10)(10)(10)(10)-|
D)------------------------------------------|
A)------------------------------------------|
D)------------------------------------------|
"I used to be love drunk
But now I'm hungover
I love you forever
But now it's over...."

Bridge:

e)-----------------------------------|
B)-----------------------------------|
G)-8888888888888888-8888888877777777-|
D)-----------------------------------|
A)-----------------------------------|
D)-----------------------------------|
"All the time I wasted on you
All the bullshit you put me through...."

e)-----------------------------------------------------------|
B)-----------------------------------------------------------|
G)-8888888888888888-88888888(10)(10)(10)(10)(10)(10)(10)(10)-|
D)-----------------------------------------------------------|
A)-----------------------------------------------------------|
D)-----------------------------------------------------------|
"I'm checking into rehab
'Cause everything that we had
Didn't mean a thing to you...."

e)------------------|
B)------------------|
G)-8888888888888888-|
D)------------------|
A)------------------|
D)------------------|
"...you...."

(Strum this after "I love you forever")
e)---|
B)---|
G)---|
D)-8-|
A)-8-|
D)-8-|
"I used to be love drunk
(But now I'm hungover)
I love you forever
But now I'm sober...."

Chorus:

e)-----------------------------------------------------------------|
B)-(13)(13)(13)(13)(13)(13)(13)(13)(13)(13)(13)(13)(13)(13)(13)(13)|
G)-----------------------------------------------------------------|
D)-----------------------------------------------------------------|
A)-----------------------------------------------------------------|
D)-----------------------------------------------------------------|

e)-----------------------------------------------------------------|
B)-(10)(10)(10)(10)(10)(10)(10)(10)--------------------------------|
G)--------------------------------(12)(12)(12)(12)(12)(12)(12)(12)-|
D)-----------------------------------------------------------------| (Repeat these two lines).
A)-----------------------------------------------------------------|
D)-----------------------------------------------------------------|
"I used to be love drunk
But now I'm hungover
I love you forever
Forever is over
We used to kiss all night
Now it's just a barfight
So don't call me cryin'
Say hello to goodbye (Oh yeah!)...."

e)------------------------------------------------------------------|
B)------------------------------------------------------------------|
G)-(10)(10)(10)(10)(10)(10)(10)(10)-(12)(12)(12)(12)(12)(12)(12)(12)|
D)------------------------------------------------------------------|
A)------------------------------------------------------------------|
D)------------------------------------------------------------------|
"'Cause just one sip (Oh yeah!)...."

e)-----------------------------------------------------------------|
B)-(10)(10)(10)(10)(10)(10)(10)(10)--------------------------------|
G)--------------------------------(12)(12)(12)(12)(12)(12)(12)(12)-|
D)-----------------------------------------------------------------|
A)-----------------------------------------------------------------|
D)-----------------------------------------------------------------|
"Would make me sick...."

e)-----------------------------------------------------------------|
B)-(13)(13)(13)(13)(13)(13)(13)(13)(13)(13)(13)(13)(13)(13)(13)(13)|
G)-----------------------------------------------------------------|
D)-----------------------------------------------------------------|
A)-----------------------------------------------------------------|
D)-----------------------------------------------------------------|

e)-----------------------------------------------------------------|
B)-(10)(10)(10)(10)(10)(10)(10)(10)--------------------------------|
G)--------------------------------(12)(12)(12)(12)(12)(12)(12)(12)-|
D)-----------------------------------------------------------------|
A)-----------------------------------------------------------------|
D)-----------------------------------------------------------------|
"I used to be love drunk
But now I'm hungover
I love you forever
But now it's...."

Outro:

e)---------13--13--13-------|
B)-10h11h13--13--13--13-----|
G)--------------------------|
D)--------------------------| x4
A)--------------------------|
D)--------------------------|
"...over
(Na na na na na na na na na
Na na na na na na na na na
Na na na na na na na na na
Na na na na na na na na na)...."

e)---------13--13--13-----------13--13--13-15-|
B)-10h11h13--13--13--13-10h11h13--13--13------|
G)--------------------------------------------|
D)--------------------------------------------| x2
A)--------------------------------------------|
D)--------------------------------------------|
"(Now it's over)
(Still taste it on my tongue)
(Now it's)...."

Tremelo picking until song fades out.
e)------|
B)------|
G)-(10)-|
D)------|
A)------|
D)------|
"...(over)...."
****************************************************************************
Lyrics:

(Hey!  Hey!  Hey!  Hey!)
Top down in the summer sun
The day we met was like a hit and run
And I still taste it on my tongue (Taste it on my tongue)
The sky was burning up like fireworks
You made me want you oh so bad it hurts
But girl, in case you haven't heard

I used to be love drunk
But now I'm hungover
I love you forever
Forever is over
We used to kiss all night
Now it's just a barfight
So don't call me cryin'
Say hello to goodbye (Oh yeah!)
'Cause just one sip (Oh yeah!)
Would make me sick
I used to be love drunk
But now I'm hungover
I love you forever
But now it's over

(Hey!  Hey!  Hey!  Hey!  Hey!  Hey!  Hey!  Hhey!)
Hot sweat and blurry eyes
We're spinning on a roller coaster ride
With the world stuck in black and white
You drove me crazy every time we touched
Now I'm so broken that I can't get up
Oh girl, you make me such a rush

I used to be love drunk
But now I'm hungover
I love you forever
Forever is over
We used to kiss all night
Now it's just a barfight
So don't call me cryin'
Say hello to goodbye (Oh yeah!)
'Cause just one sip (Oh yeah!)
Would make me sick
I used to be love drunk
But now I'm hungover
I love you forever
But now it's over

All the time I wasted on you
All the bullshit you put me through
I'm checking into rehab
Cause everything that we had
Didn't mean a thing to you

I used to be love drunk
(But now I'm hungover)
I love you forever
But now I'm sober

I used to be love drunk
But now I'm hungover
I love you forever
Forever is over
We used to kiss all night
Now it's just a barfight
So don't call me cryin'
Say hello to goodbye (Oh yeah!)
'Cause just one sip (Oh yeah!)
Would make me sick
I used to be love drunk
But now I'm hungover
I love you forever
But now it's over
(Na na na na na na na na na
Na na na na na na na na na
Na na na na na na na na na
Na na na na na na na na na)

(Now it's over)
(Still taste it on my tongue)
(Now it's over)....
****************************************************************************
Tap to rate this tab
# A B C D E F G H I J K L M N O P Q R S T U V W X Y Z