Song name
# A B C D E F G H I J K L M N O P Q R S T U V W X Y Z

Boys Like Girls - Two Is Better Than One tab

-------------------------------------------------------------------------------
	            Two is Better Than One - Boys Like Girls
-------------------------------------------------------------------------------
Tabbed by: Johan_ander
Email:Manjyome_thunder@live.com

Two is better than one - Boys Like Girls
Tuning:BF#BD#F#B
This is how Martin and Paul plays the song in iheartradio
Refer to this video for timing/strumming patterns etc.
http://www.youtube.com/watch?v=fg8nEmTx7EI

Intro(Rhythm):

B |--------0---------0---------0---------0--|
F#|----0---------0---------0---------0------|
D#|------3---------3---------3---------3----|
B |----------(0)-------(0)-------(0)--------|
F#|-----------------------------------------|
B |--0--------------------------------------|

Verse:

Rhythm:
B |--------0---------0---------0---------0--|
F#|----0---------0---------0---------0------|
D#|------3---------3---------3---------3----|
B |----------(0)-------(0)-------(0)--------|
F#|-----------------------------------------|
B |--0--------------------------------------|

B |--------0---------0---------0---------0--|
F#|----0---------0---------0---------0------|
D#|------7---------7---------7---------7----|
B |----------(9)-------(9)-------(9)--------|
F#|-----------------------------------------|
B |--9--------------------------------------|

B |--------0---------0-------0---------0--|
F#|----0---------0-------0---------0------|
D#|------5---------5-------7---------7----|
B |----------(5)---------------(7)--------|
F#|---------------------------------------|
B |--5-----------------7------------------|

B |--------0---------0---------0---------0--|
F#|----0---------0---------0---------0------|
D#|------3---------3---------3---------3----|
B |----------(0)-------(0)-------(0)--------|
F#|-----------------------------------------|
B |--0--------------------------------------| Play the verse twice.

Lead:
(play this on the 2nd part of the verse.)
B |-------------------------------------------------------------------------|
F#|-555555555-12-12-16-14-14-14-14-14-14-14-12-10-10-10-12-12-12-12-5-5-5-5-|
D#|-------------------------------------------------------------------------|
B |-------------------------------------------------------------------------|
F#|-------------------------------------------------------------------------|
B |-------------------------------------------------------------------------|

Chorus:

Rhythm:
B |--------0---------0---------0---------0--|
F#|----0---------0---------0---------0------|
D#|------5---------5---------5---------5----|
B |----------(5)-------(5)-------(5)--------|
F#|-----------------------------------------|
B |--5--------------------------------------|

B |--------0---------0---------0---------0--|
F#|----0---------0---------0---------0------|
D#|------7---------7---------7---------7----|
B |----------(7)-------(7)-------(7)--------|
F#|-----------------------------------------|
B |--7--------------------------------------| Play this three times.

B |--------0---------0-------0---------0--|
F#|----0---------0-------0---------0------|
D#|------7---------7-------7---------7----|
B |----------(9)---------------(7)--------|
F#|---------------------------------------|
B |--9-----------------7------------------|

B |--------0---------0---------0---------0--|
F#|----0---------0---------0---------0------|
D#|------5---------5---------5---------5----|
B |----------(5)-------(5)-------(5)--------|
F#|-----------------------------------------|
B |--5--------------------------------------|

B |--------0---------0-------0---------0--|
F#|----0---------0-------0---------0------|
D#|------7---------7-------7---------7----|
B |----------(9)---------------(7)--------|
F#|---------------------------------------|
B |--9-----------------7------------------|

B |--------0---------0---------0---------0--|
F#|----0---------0---------0---------0------|
D#|------3---------3---------3---------3----|
B |--0-------(0)-------(0)-------(0)--------|
F#|--0--------------------------------------|
B |--0--------------------------------------|

Lead:
Maybe It's true..That I can't live without you....
B |--------0~-----------------0~------------------|
F#|--------0~-----------------0~------------------|       
D#|--------0~-----------------0~------------------|
B |--------5~-----------------7~------------------|
F#|--------5~-----------------7~------------------|
B |--------5~-----------------7~------------------|

And Maybe Two...... Is better than one.....
B |--------0~-----------------0~------------------|
F#|--------0~-----------------0~------------------|       
D#|--------0~-----------------0~------------------|
B |--------5~-----------------7~------------------|
F#|--------5~-----------------7~------------------|
B |--------5~-----------------7~------------------|

But there's so much time.....       To figure out the rest of my life..
         B |--------0~-----------------0~------------------|
         F#|--------0~-----------------0~------------------|       
         D#|--------0~-----------------0~------------------|
         B |--------5~-----------------7~------------------|
         F#|--------5~-----------------7~------------------|
         B |--------5~-----------------7~------------------|

And you've already got me coming undone....
B |--------0~----------0~---------0~-------|
F#|--------0~----------0~---------0~-------|       
D#|--------0~----------0~---------0~-------|
B |--------9~----------7~---------5~-------|
F#|--------9~----------7~---------5~-------|
B |--------9~----------7~---------5~-------|

And I'm thinking two is better than one
B |--------------0~-----0~----------0~------------------|
F#|--------------0~-----0~----------0~------------------|       
D#|--------------0~-----0~----------3~------------------|
B |--------------5~-----7~----------0~------------------|
F#|--------------5~-----7~----------0~------------------|
B |--------------5~-----7~----------0~------------------|

Verse 2

During this verse the rhythm plays the same, but the lead part plays differently

Lead:
B |------------------------------------------------------------------------|
F#|-9-9-9-9-9-9-12-12-9-9-9-9-9-9-12-12-5-5-5-5-7-7-7-7-4-4/5-5-12-4-4/5-5-| 
D#|------------------------------------------------------------------------|
B |------------------------------------------------------------------------|
F#|------------------------------------------------------------------------|
B |------------------------------------------------------------------------|


Play this in both part of verse.

Chorus

Again, Rhythm plays the same but Lead play a bit differently but same chord.
Refer to the video for strumming pattern.

Bridge

Rhythm:
B |-----00000---00000---|
F#|-----00000---00000---|      
D#|-----00000---00000---|
B |-----55555---77777---|
F#|-----55555---77777---|
B |-----55555---77777---|

                         I remember what you wore on the first day....

B |-----00000---00-000--------0------0------0------0--|
F#|-----00000---00-000----0------0------0------0------|       
D#|-----00000---00-000------3------3------3------3----|
B |-----55555---99-777--0-----------------------------|  
F#|-----55555---99-777--0-----------------------------|
B |-----55555---99-777--0-----------------------------|
        You came into my life and i thought hey....
B |--------0---------0---------0---------0--0~----|
F#|----0---------0---------0---------0------0~----|
D#|------7---------7---------7---------7----0~----|
B |----------(9)-------(9)-------(9)--------5~----|
F#|-----------------------------------------5~----|
B |--9--------------------------------------5~----|

Lead:(Stops when the singing comes.)
B |-------------------------------------------------------------------------|
F#|--4-5-5-12-12-4-4-5-4-5-5-4-4-0-0-0-4-5-5-12-12-12-12-12-7-7/9-9-9-9-9-7-|
D#|-------------------------------------------------------------------------|
B |-------------------------------------------------------------------------|
F#|-------------------------------------------------------------------------|
B |-------------------------------------------------------------------------|

B |----------|
F#|-7-7-7-5~-|
D#|----------|
B |----------|
F#|----------|
B |----------|

Final Chorus:

Both Guitar Plays the same thing.
Rhythm and Lead:
Maybe It's true..That I can't live without you....
B |--------00000000000000000--000000000000000000--|
F#|--------00000000000000000--000000000000000000--|       
D#|--------00000000000000000--000000000000000000--|
B |--------55555555555555555--777777777777777777--|
F#|--------55555555555555555--777777777777777777--|
B |--------55555555555555555--777777777777777777--|

And Maybe Two...... Is better than one.....
B |--------00000000000000000--000000000000000000--|
F#|--------00000000000000000--000000000000000000--|       
D#|--------00000000000000000--000000000000000000--|
B |--------55555555555555555--777777777777777777--|
F#|--------55555555555555555--777777777777777777--|
B |--------55555555555555555--777777777777777777--|

But there's so much time.....       To figure out the rest of my life..
         B |--------00000000000000000--000000000000000000--|
         F#|--------00000000000000000--000000000000000000--|       
         D#|--------00000000000000000--000000000000000000--|
         B |--------55555555555555555--777777777777777777--|
         F#|--------55555555555555555--777777777777777777--|
         B |--------55555555555555555--777777777777777777--|

And you've already got me coming undone....
B |--------0000000000--000000000--000000000000000000-------|
F#|--------0000000000--000000000--000000000000000000-------|       
D#|--------0000000000--000000000--000000000000000000-------|
B |--------9999999999--777777777--555555555555555555-------|
F#|--------9999999999--777777777--555555555555555555-------|
B |--------9999999999--777777777--555555555555555555-------|

And I'm Thinking woooooo....I can't live without you...
B |--------------00000000000000000--000000000000000000--|
F#|--------------00000000000000000--000000000000000000--|       
D#|--------------00000000000000000--000000000000000000--|
B |--------------55555555555555555--777777777777777777--|
F#|--------------55555555555555555--777777777777777777--|
B |--------------55555555555555555--777777777777777777--|

'Cause baby two........    is better than one.....
B |--------00000000000000000--000000000000000000--|
F#|--------00000000000000000--000000000000000000--|       
D#|--------00000000000000000--000000000000000000--|
B |--------55555555555555555--777777777777777777--|
F#|--------55555555555555555--777777777777777777--|
B |--------55555555555555555--777777777777777777--|

But there's so much time.....       To figure out the rest of my life..
         B |--------00000000000000000--000000000000000000--|
         F#|--------00000000000000000--000000000000000000--|       
         D#|--------00000000000000000--000000000000000000--|
         B |--------55555555555555555--777777777777777777--|
         F#|--------55555555555555555--777777777777777777--|
         B |--------55555555555555555--777777777777777777--|

  But I'll figure out When all is said and done
B |--------0000000000--000000000--000000000000000000-------|
F#|--------0000000000--000000000--000000000000000000-------|       
D#|--------0000000000--000000000--000000000000000000-------|
B |--------9999999999--777777777--555555555555555555-------|
F#|--------9999999999--777777777--555555555555555555-------|
B |--------9999999999--777777777--555555555555555555-------|

           Two......is better than one
B |--------0000000000--000000000--0~------|
F#|--------0000000000--000000000--0~------|       
D#|--------0000000000--000000000--3~------|
B |--------9999999999--777777777--0~------|
F#|--------9999999999--777777777--0~------|
B |--------9999999999--777777777--0~------|

Outro:

Rhythm:
B |--------0---------0---------0---------0--|
F#|----0---------0---------0---------0------|
D#|------3---------3---------3---------3----|
B |----------(0)-------(0)-------(0)--------|
F#|-----------------------------------------|
B |--0--------------------------------------|

B |--------0---------0---------0---------0--|
F#|----0---------0---------0---------0------|
D#|------7---------7---------7---------7----|
B |----------(9)-------(9)-------(9)--------|
F#|-----------------------------------------|
B |--9--------------------------------------|

B |--------0---------0-------0---------0--0~--|
F#|----0---------0-------0---------0------0~--|
D#|------7---------7-------7---------7----3~--|
B |----------(9)---------------(7)--------0~--|
F#|---------------------------------------0~--|
B |--9-----------------7------------------0~--|

Lead:
B |--------------------------------------------------------------------|
F#|-555555555-12-12-16-14-14-14-14-14-14-14-12-10-10-10-12-12-12-12-5--|
D#|--------------------------------------------------------------------|
B |--------------------------------------------------------------------|
F#|--------------------------------------------------------------------|
B |--------------------------------------------------------------------|




************************************

| /   slide up
| \   slide down
| h   hammer-on
| p   pull-off
| ~   vibrato
| +   harmonic
| x   Mute note
| b   Bend
| pb  Pre-bend
| br  Bend release
| pbr Pre-bend release
| brb Bend release bend
| ()  Ghost Note

************************************
Tap to rate this tab
 
# A B C D E F G H I J K L M N O P Q R S T U V W X Y Z