Song name
# A B C D E F G H I J K L M N O P Q R S T U V W X Y Z

Boys Like Girls - Two Is Better Than One tab

-------------------------------------------------------------------------------
			     Two Is Better Than One - Boys Like Girls
-------------------------------------------------------------------------------
Tabbed by: Nicky_2793
Email:nicky_2793@hotmail.com

K this is the song without having to downtune to open tuning, however the real song is 
the key
of C and this tab is in E. So if you want to play along with the song you have to 
or play some crappy ordinary
C,am,g,f chords. Please rate or comment.
note: This Tab is in a different key (E) and so wont be the same as the real song as it 
in C

    E  A  B F#m c#m or A  B
e|--0--0--0--0---0-|---0--0---|
B|--0--0--0--0---0-|---0--0---|
G|--1--2--4--2---6-|---6--8---|
D|--2--2--4--4---6-|---7--9---|
A|--2--0--2--4---2-|---7--9---|
E|--0--0--0--0---0-|---5--7---|

Tuning: Standard

e|-------0-----0-----0-----0---|
B|-----0-----0-----0-----0-----|
G|---4-----4-----4-----4-------|> Intro
D|-----------------------------|
A|-----------------------------|
E|-0---------------------------|

e|-------0-----0-----0-----0-------0-----0-----0-----0-----------------------|
B|-----0-----0-----0-----0-------0-----0-----0-----0-------------------------|
G|---4-----4-----4-----4-------8-----8-----8-----8---------------------------|
D|---------------------------------------------------------------------------|
A|---------------------------6-----------------------------------------------|
E|-0-------------------------------------------------------------------------|
                                                                              > Verse x2
e|-------0-----0--------0-----0-------0-----0-----0-----0--------------------|
B|-----0-----0--------0-----0-------0-----0-----0-----0----------------------|
G|---2-----2--------4-----4-------4-----4-----4-----4------------------------|
D|---------------------------------------------------------------------------|
A|-0-------------2-----------------------------------------------------------|
E|------------------------------0--------------------------------------------|

Chorus

e|-------0-----0-----0-----0-------0-----0-----0-----0-----------------------|
B|-----0-----0-----0-----0-------0-----0-----0-----0-------------------------|
G|---2-----2-----2-----2-------4-----4------4-----4--------------------------|
D|---------------------------------------------------------------------------|x 3
A|-0------------------------2------------------------------------------------|
E|---------------------------------------------------------------------------|
then:
e|-------0-----0------0-----0-------0-----0-----0-----0-------0-------0-------0-----0-----|
B|-----0-----0------0-----0-------0-----0-----0-----0-------0-------0-------0-----0-------|
G|---8-----8------4-----4-------2-----2-----2-----2-------8-------8-------4-----4---------|
D|----------------------------------------------------------------------------------------|
A|-6------------2-------------0-------------------------6-------6-------2-----------------|
E|----------------------------------------------------------------------------------------|
repeat intro once

For verse two you can either strum chords or continue with verse ones riff

E
I remember every look upon your face
c#m
The way you roll your eyes
            A
The way you taste
            B                  E
You make it hard for breathing
E
Cause when I close my eyes and drift away
C#m
I think of you and everything's okay
A           B             E
I'm finally now believing

Chorus
		 A
That maybe it's true
	      B
That I can't live without you
      A                  B
Maybe two is better than one
                A
There's so much time
   B
To figure out the rest of my life

        C#m                  B          A
And you thought that it got me coming undone
                 C#m     B           A
And I'm thinking two is better than one

Bridge thingy: A, c#m, B, A, F#m, B

Repeat the riff for this part of verse 1
I remember what you wore on the first day You came into my life and I thought, "Hey,".

Repeat chorus strumming.
Tap to rate this tab
 
# A B C D E F G H I J K L M N O P Q R S T U V W X Y Z