Boys Like Girls - Five Minutes To Midnight tab

Song: Five Minutes to Midnight
Artist: Boys Like Girls
Album: Boys Like Girls
Tuning: Open D

Lead Guitar part (Paul DiGiovanni)
Intro

D|--0-0-0-0-0-0---------------------------------|
A|--5-5-4-4-5-5-0-0-----------------------------|
F#|---------------------------------------------|
D|----------------------------------------------| x12
A|----------------------------------------------|
D|----------------------------------------------|

Verse
    pm~~~~~~~~~~~~~
D|--------------7-7-----------------------------|
A|--5-5-4-4-5-5---------------------------------|
F#|---------------------------------------------|
D|----------------------------------------------| x14
A|----------------------------------------------|
D|----------------------------------------------|

D|--------------7-7-----------------------------|
A|--5-5-4-4-5-5---------------------------------|
F#|---------------------------------------------|
D|----------------------------------------------|
A|----------------------------------------------|
D|----------------------------------------------|

Pre-Chorus

D|----------------------------------------------|
A|--5-5-5-5-------------------------------------|
F#|---------------------------------------------|
D|----------------------------------------------| x3
A|----------------------------------------------|
D|----------------------------------------------|

D|----------------------------------------------|
A|----------------------------------------------|
F#|---------------------------------------------|
D|------7---------------------------------------| x2
A|--4-5-----------------------------------------|
D|----------------------------------------------|
OR (as I personally prefer)
D|------7---------------------------------------|
A|--4-5-----------------------------------------|
F#|---------------------------------------------|
D|----------------------------------------------| x2
A|----------------------------------------------|
D|----------------------------------------------|

D|----------------------------------------------|
A|--5-5-5-5-------------------------------------|
F#|---------------------------------------------|
D|----------------------------------------------| x3
A|----------------------------------------------|
D|----------------------------------------------|

Chorus
(simple up down strumming for each chords)

D|--0----0----0----0----------------------------|
A|--0----0----0----0----------------------------|
F#|-0----0----0----0----------------------------|
D|--0----7----9----5----------------------------|
A|--0----7----9----5----------------------------|
D|--0----7----9----5----------------------------|

D|---0----0----0----0--0--0--0-0----------------|
A|---0----0----0----0--0--0--0-0----------------|
F#|--0----0----0----0--0--0--0-0----------------|
D|---0----7----9----5--9--7--5-5----------------|
A|---0----7----9----5--9--7--5-5----------------|
D|---0----7----9----5--9--7--5-5----------------|
                   [Single Strum]
Verse

Pre-Chorus

Chorus

I'll do the bridge later...
Hope this helps a bit!
Tap to rate this tab
 
# A B C D E F G H I J K L M N O P Q R S T U V W X Y Z