Song name
# A B C D E F G H I J K L M N O P Q R S T U V W X Y Z

Boys Like Girls - Love Drunk tab

Hey guys, its Kerry. First tab FTW. XD
I can do requests if you'd like. Just email me what you'd like done.
youllnevabeatmanutd@hotmail.com

Tuning : Drop D : DADGBE

Btw, when I say "PM ......." I mean palm mute the notes above, and when I put 
"****" after "PM .......", it means don't palm mute them notes :)
h = hammer on

Intro ;

Intro Riff:  

E|-----------11-----11-----11-----------|
B|-8h9h11--------11----11------11-------|
G|--------------------------------------| (4x)
D|--------------------------------------|
A|--------------------------------------|
D|--------------------------------------|

e|---------------------------------------------------------------------|
B|---------------------------------------------------------------------|
G|---------------------------------------------------------------------|
D|---1~------------8~-----6~-------------------------------------------|
A|---1~------------8~-----6~-------------------------------------------|
D|---1~------------8~-----6~-------------------------------------------|

e|---------------------------------------------------------------|
B|---------------------------------------------------------------|
G|---------------------------------------------------------------|
D|---1~------------8-6666666688888888----------------------------|
A|---1~------------8-6666666688888888----------------------------|
D|---1~------------8-6666666688888888----------------------------|

Verse 1;

e|---------------------------------------------------------------|
B|---------------------------------------------------------------|
G|---------------------------------------------------------------|
D|---11111111111116666666666666333333333333666666666666----------|
A|---11111111111116666666666666333333333333666666666666----------|
D|---11111111111116666666666666333333333333666666666666----------|

PM ...............................................*****

e|---------------------------------------------------------------|
B|---------------------------------------------------------------|
G|---------------------------------------------------------------|
D|---111111111111666666666666333333333333888888888888888---------|
A|---111111111111666666666666333333333333888888888888888---------|
D|---111111111111666666666666333333333333888888888888888---------|

PM ...............................................******

Chorus; 

e|---------------------------------------------------------------|
B|---------------------------------------------------------------|
G|---------------------------------------------------------------|
D|---1010101010101010666666666611111111118888888888--------------| x2
A|---1010101010101010666666666611111111118888888888--------------|
D|---1010101010101010666666666611111111118888888888--------------|


e|---------------------------------------------------------------|
B|---------------------------------------------------------------|
G|---------------------------------------------------------------|
D|---6666666688888888101010101010101088888888--------------------|
A|---6666666688888888101010101010101088888888--------------------|
D|---6666666688888888101010101010101088888888--------------------|


e|---------------------------------------------------------------|
B|---------------------------------------------------------------|
G|---------------------------------------------------------------|
D|---101010101010101066666666111111111-8-------------------------|
A|---101010101010101066666666111111111-8-------------------------|
D|---101010101010101066666666111111111-8-------------------------|


Post-Chorus;

e|---------------------------------------------------------------|
B|---------------------------------------------------------------|
G|---------------------------------------------------------------|
D|---1111111111111111166666666666666666--------------------------|
A|---1111111111111111166666666666666666--------------------------|
D|---1111111111111111166666666666666666--------------------------|


Verse 2; 


e|---------------------------------------------------------------|
B|---------------------------------------------------------------|
G|---------------------------------------------------------------|
D|---11111111111116666666666666333333333333666666666666----------|
A|---11111111111116666666666666333333333333666666666666----------|
D|---11111111111116666666666666333333333333666666666666----------|

PM ...............................................*****

e|---------------------------------------------------------------|
B|---------------------------------------------------------------|
G|---------------------------------------------------------------|
D|---111111111111666666666666333333333333888888888888888---------|
A|---111111111111666666666666333333333333888888888888888---------|
D|---111111111111666666666666333333333333888888888888888---------|

PM ...............................................******


Chorus;

e|---------------------------------------------------------------|
B|---------------------------------------------------------------|
G|---------------------------------------------------------------|
D|---1010101010101010666666666611111111118888888888--------------| x2
A|---1010101010101010666666666611111111118888888888--------------|
D|---1010101010101010666666666611111111118888888888--------------|


e|---------------------------------------------------------------|
B|---------------------------------------------------------------|
G|---------------------------------------------------------------|
D|---6666666688888888101010101010101088888888--------------------|
A|---6666666688888888101010101010101088888888--------------------|
D|---6666666688888888101010101010101088888888--------------------|


e|---------------------------------------------------------------|
B|---------------------------------------------------------------|
G|---------------------------------------------------------------|
D|---1010101010101010666666661111111118888888--------------------|
A|---1010101010101010666666661111111118888888--------------------|
D|---1010101010101010666666661111111118888888--------------------|


Middle-Eight/Bridge thing;

e|---------------------------------------------------------------|
B|---------------------------------------------------------------|
G|---------------------------------------------------------------|
D|---66666666666666666666111111111888888888----------------------|x2
A|---66666666666666666666111111111888888888-----------------------|
D|---66666666666666666666111111111888888888-----------------------|


e|---------------------------------------------------------------|
B|---------------------------------------------------------------|
G|---------------------------------------------------------------|
D|---6666666666666666666-----------------------------------------|
A|---6666666666666666666-----------------------------------------|
D|---6666666666666666666-----------------------------------------|


"I love you forever...";

e|---------------------------------------------------------------|
B|---------------------------------------------------------------|
G|---------------------------------------------------------------|
D|----8----------------------------------------------------------|
A|----8----------------------------------------------------------|
D|----8----------------------------------------------------------|


Last Chorus;
      (I find it easier to play some of the power chords on the A string)

e|---------------------------------------------------------------|
B|---------------------------------------------------------------|
G|---77777777----------------555555555---------------------------|
D|---777777778888888833333333555555555---------------------------|x2
A|---555555558888888833333333333333333---------------------------|
D|-----------8888888833333333------------------------------------|


e|---------------------------------------------------------------|
B|---------------------------------------------------------------|
G|---333333333555555557777777755555555---------------------------|
D|---333333333555555557777777755555555---------------------------|
A|---111111111333333335555555533333333---------------------------|
D|---------------------------------------------------------------|


e|---------------------------------------------------------------|
B|---------------------------------------------------------------|
G|---77777777---------------555555555----------------------------|
D|---77777777888888883333333555555555----------------------------|
A|---55555555888888883333333333333333----------------------------|
D|-----------8888888833333333------------------------------------|


Outro; 

Outro Riff;

e|----------13----13----13------|
B|-10p11p13----13----13----13---|
G|------------------------------| Repeat til end
D|------------------------------|
A|------------------------------|
D|------------------------------|


e|---------------------------------------------------------------|
B|---------------------------------------------------------------|
G|---------------------------------------------------------------|
D|--------33333333333333333388888888888888888--------------------|Repeat til end
A|--------33333333333333333388888888888888888--------------------|
D|--------33333333333333333388888888888888888--------------------|

e|---------------------------------------------------------------|
B|---------------------------------------------------------------|
G|---------------------------------------------------------------|
D|-------3~------------------------------------------------------|
A|-------3~------------------------------------------------------|
D|-------3~------------------------------------------------------|

FIN. (:
Tap to rate this tab
 
# A B C D E F G H I J K L M N O P Q R S T U V W X Y Z