Song name
# A B C D E F G H I J K L M N O P Q R S T U V W X Y Z

Boys Like Girls - Two Is Better Than One tab

Two is Better Than One - Boys Like Girls



Tuning: ECGDAE
1e
2C
3G
4D
5A
6E

Order:
-intro
-verse
-chorus
-verse2
-chorus2
-adlib
-verse/bridge
-chorus/outro

Chords used:

        E C G D A E
C       0 0 0 5 3 X
Am      0 0 0 2 0 X
F       X X 2 3 3 1
G       X X X 5 5 3
Dm      X X X 7 7 5 


intro:

         C

E |---------------------------------------|
C |------------0-----0-----0-----0--------|
G |----------0-----0-----0-----0----------|
D |--------5-----5-----5-----5------------|
A |------3--------------------------------|
E |---------------------------------------|


verse:

        C                                    Am

E|--------------------------------------------------------------------------|
C |-----------0-----0-----0-----0------------------0-----0-----0-----0------|
G |---------0-----0-----0-----0------------------0-----0-----0-----0--------|
D |-------5-----5-----5-----5------------------2-----2-----2-----2----------|
A |-----3------------------------------------0------------------------------|
E |-------------------------------------------------------------------------|

                      
        F              G                        C

E |-------------------------------------------------------------------------|
C |-----------0-----0--------0-----0------------------0-----0-----0-----0---|
G |---------0-----0--------0-----0------------------0-----0-----0-----0-----|
D |-------3-----3--------5-----5------------------5-----5-----5-----5-------|
A |---------------------------------------------3---------------------------|
E |-----1--------------3----------------------------------------------------|


(2X)


chorus:

                    
         F                          G

E |-------------------------------------------------------------------------|
C |------------0-----0-----0-----0---------0-----0-----0-----0--------------|
G |----------0-----0-----0-----0---------0-----0-----0-----0----------------|
D |--------3-----3-----3-----3---------5-----5-----5-----5------------------|
A |-------------------------------------------------------------------------|
E |------1--------------------------3---------------------------------------|

3X

         Am             G               F

E |------------------------------------------------------------------------|
C |------------0-----0------0-----0---------0-----0-----0-----0------------|
G |----------0-----0------0-----0---------0-----0-----0-----0--------------|
D |--------2-----2------5-----5---------3-----3-----3-----3----------------|
A |------0-----------------------------------------------------------------|
E |------------------- 3-------------1-------------------------------------| 


         Am            G              C

E |------------------------------------------------------------------------|
C |------------0-----0------0-----0---------0-----0-----0-----0------------|
G |----------0-----0------0-----0---------0-----0-----0-----0--------------|
D |--------2-----2------5-----5---------3-----3-----3-----3----------------|
A |------0----------------------------3------------------------------------|
E |-------------------3----------------------------------------------------| 


verse 2:
(strum)
C - Am - F - G - C  (2X)

chorus 2:                                              
F - G - F - G - F - G - Am - G - F - Am - G ... (adlib F)      

adlib:

       F          G   Am                 F           Dm   G               C
 
E |----------15--------------------------------15---------------------------|
C |----11-12-----11-12-11-12-11----------11-12----------------11-12-11p12-12|
G |-------------------------------12----------------------------------------|
D |----------------------------------15--------------9-10-9-10--------------|
A |-------------------------------------------------------------------------|
E |-------------------------------------------------------------------------|


verse 1st stanza/bridge :

    C                                    Am                            F

E |--------------------------------------------------------------------X---|
C |------0-----0-----0-----0------------------0-----0-----0-----0------X---|
G |----0-----0-----0-----0------------------0-----0-----0-----0--------2---|
D |--5-----5-----5-----5------------------2-----2-----2-----2----------3---|
A |-3------------------------------------0-----------------------------3---|
E |--------------------------------------------------------------------1---|


outro-chorus :

F - G - F - G - F - G - Am - G - F

F - G - F - G - F - G - Am - G - F - Am - G ...


        C                                   Am

E|--------------------------------------------------------------------------|
C|------------0-----0-----0-----0------------------0-----0-----0-----0------|
G|----------0-----0-----0-----0------------------0-----0-----0-----0--------|
D|--------5-----5-----5-----5------------------2-----2-----2-----2----------|
A|------3------------------------------------0------------------------------|
E|--------------------------------------------------------------------------|

                      
         F              G                        C

E |----------------------------------------------X-------|
C |------------0-----0--------0-----0------------0-------|
G |----------0-----0--------0-----0--------------0-------|
D |--------3-----3--------5-----5----------------5-------|
A |----------------------------------------------3-------|
E |------1--------------3------------------------X-------|






tabs by: pat
http://www.facebook.com/profile.php?id=100000086737355

Tap to rate this tab
 
# A B C D E F G H I J K L M N O P Q R S T U V W X Y Z