Boys Like Girls - Two Is Better Than One tab

Two Is Better Than One
Boys Like Girls feat. Taylor Swift
nadcute

This Tab of mine is taken from the song Two Is Better Than One, it is my own
version tabbed of the song. This song had a music video that shows past memories.
Thinking of those special moments is really reminiscing, those treasurable minutes
that you share with each other is like a picture of happiness and like forgetting
all things surrounds you. But the hurting part is you cannot bring back those
moments unlike yesterday. Hope you like my tab^^



INTRO
e |-----0---0---0---0------|
B |--0---0---0---0---0-----|
G |------------------------|
D |-2-2---2---2---2--2-----|
A |------------------------|
E |------------------------|


VERSE
e |-----0---0---0---0------|
B |--0---0---0---0---0-----|
G |------------------------|
D |-2-2---2---2---2--2-----|
A |------------------------|
E |------------------------|
    I remember………

e |-----0---0---0---0------|
B |--0---0---0---0---------|
G |------------------------|
D |-7-7---7---7---7--------|
A |------------------------|
E |------------------------|
          You came into………hey
e |------0---0-------|
B |---0---0----------|
G |------------------|
D |------------------|
A |-4--4---4---------|
E |------------------|
      You know
e |------0---0-------|
B |---0---0----------|
G |------------------|
D |------------------|
A |-0--0---0---------|
E |------------------|
      Could be somethin’

e |-----0---0---0---0------|
B |--0---0---0---0---0-----|
G |------------------------|
D |-2-2---2---2---2--2-----|
A |------------------------|
E |------------------------|



VERSE II


e |-----0---0---0---0------|
B |--0---0---0---0---0-----|
G |------------------------|
D |-2-2---2---2---2--2-----|
A |------------------------|
E |------------------------|
    Cause………


e |-----0---0---0---0------|
B |--0---0---0---0---------|
G |------------------------|
D |-7-7---7---7---7--------|
A |------------------------|
E |------------------------|
          You know……


e |------0---0-------|
B |---0---0----------|
G |------------------|
D |------------------|
A |-4--4---4---------|
E |------------------|
      And now


e |------0---0-------|
B |---0---0----------|
G |------------------|
D |------------------|
A |-0--0---0---------|
E |------------------|
     Im left w/nothin’



e |-----0---0---0---0------|
B |--0---0---0---0---0-----|
G |------------------------|
D |-2-2---2---2---2--2-----|
A |------------------------|
E |------------------------|





CHORUS



e |------0---0----|------0---0----|-----0---0---0---0--------|
B |---0---0-------|---0---0-------|--0---0---0---0---0-------|
G |----------------|----------------|------------------------|
D |----------------|----------------|-2-2---2---2---2--2-----|
A |-4--4---4------|-0--0---0------|--------------------------|
E |----------------| ----------------|-----------------------|
    True…………			     that I can’t……and maybe

e |------0---0----|------0---0----|-----0---0---0---0--------|
B |---0---0-------|---0---0-------|--0---0---0---0---0-------|
G |----------------|----------------|------------------------|
D |----------------|----------------|-2-2---2---2---2--2-----|
A |-4--4---4------|-0--0---0------|--------------------------|
E |----------------| ----------------|-----------------------|
    Two……………	       better than one………                much

e |------0---0----|------0---0----|-----0---0---0---0--------|
B |---0---0-------|---0---0-------|--0---0---0---0---0-------|
G |----------------|----------------|------------------------|
D |----------------|----------------|-2-2---2---2---2--2-----|
A |-4--4---4------|-0--0---0------|--------------------------|
E |----------------| ----------------|-----------------------|
    Time…………  			      To figure out…….and you’re

e |------0---0----|------0---0----|-----0---0---0---0--------|
B |---0---0-------|---0---0-------|--0---0---0---0---0-------|
G |----------------|----------------|------------------------|
D |-7--7---7------|-2--2---2-----|-0-0---0---0---0---0-------|
A |----------------|----------------|------------------------|
E |----------------| ----------------|-----------------------|
     Already got me……………		           im thinking

e |------0---0----|------0---0----|-----0---0---0---0--------|
B |---0---0-------|---0---0-------|--0---0---0---0---0-------|
G |----------------|----------------|------------------------|
D |----------------|----------------|-2-2---2---2---2--2-----|
A |-4--4---4------|-0--0---0------|--------------------------|
E |----------------| ----------------|-----------------------|
    Two is better than one





VERSE III


e |-----0---0---0---0------|
B |--0---0---0---0---0-----|
G |------------------------|
D |-2-2---2---2---2--2-----|
A |------------------------|
E |------------------------|
    I remeber………


e |-----0---0---0---0------|
B |--0---0---0---0---------|
G |------------------------|
D |-7-7---7---7---7--------|
A |------------------------|
E |------------------------|
         The way……


e |------0---0-------|
B |---0---0----------|
G |------------------|
D |------------------|
A |-4--4---4---------|
E |------------------|
      Taste to


e |------0---0-------|
B |---0---0----------|
G |------------------|
D |------------------|
A |-0--0---0---------|
E |------------------|
     Hard for breathin’



e |-----0---0---0---0------|
B |--0---0---0---0---0-----|
G |------------------------|
D |-2-2---2---2---2--2-----|
A |------------------------|
E |------------------------|




VERSE IV


e |-----0---0---0---0------|
B |--0---0---0---0---0-----|
G |------------------------|
D |-2-2---2---2---2--2-----|
A |------------------------|
E |------------------------|
    Cause………


e |-----0---0---0---0------|
B |--0---0---0---0---------|
G |------------------------|
D |-7-7---7---7---7--------|
A |------------------------|
E |------------------------|
        I think of……


e |------0---0-------|
B |---0---0----------|
G |------------------|
D |------------------|
A |-4--4---4---------|
E |------------------|
      Im finally


e |------0---0-------|
B |---0---0----------|
G |------------------|
D |------------------|
A |-0--0---0---------|
E |------------------|
     Now believin’



e |-----0---0---0---0------|
B |--0---0---0---0---0-----|
G |------------------------|
D |-2-2---2---2---2--2-----|
A |------------------------|
E |------------------------|




CHORUS



e |------0---0----|------0---0----|-----0---0---0---0--------|
B |---0---0-------|---0---0-------|--0---0---0---0---0-------|
G |----------------|----------------|------------------------|
D |----------------|----------------|-2-2---2---2---2--2-----|
A |-4--4---4------|-0--0---0------|--------------------------|
E |----------------| ----------------|-----------------------|
    True…………			     that I can’t……and maybe

e |------0---0----|------0---0----|-----0---0---0---0--------|
B |---0---0-------|---0---0-------|--0---0---0---0---0-------|
G |----------------|----------------|------------------------|
D |----------------|----------------|-2-2---2---2---2--2-----|
A |-4--4---4------|-0--0---0------|--------------------------|
E |----------------| ----------------|-----------------------|
    Two……………	       better than one………                much

e |------0---0----|------0---0----|-----0---0---0---0--------|
B |---0---0-------|---0---0-------|--0---0---0---0---0-------|
G |----------------|----------------|------------------------|
D |----------------|----------------|-2-2---2---2---2--2-----|
A |-4--4---4------|-0--0---0------|--------------------------|
E |----------------| ----------------|-----------------------|
    Time…………  			      To figure out…….and you’re

e |------0---0----|------0---0----|-----0---0---0---0--------|
B |---0---0-------|---0---0-------|--0---0---0---0---0-------|
G |----------------|----------------|------------------------|
D |-7--7---7------|-2--2---2-----|-0-0---0---0---0---0-------|
A |----------------|----------------|------------------------|
E |----------------| ----------------|-----------------------|
     Already got me……………		           im thinking

e |------0---0----|------0---0---------|
B |---0---0-------|---0---0------------|
G |----------------|-------------------|
D |----------------|-------------------|
A |-4--4---4------|-0--0---0-----------|
E |----------------| ------------------|
    Two is better than ohh waa…







BRIDGE


e |-----0---0---0---0------0---0---0---0--------|
B |--0---0---0---0------0---0---0---0-----------|
G |---------------------------------------------|
D |-7-7---7---7---7---7-7---7---7---7-----------|
A |---------------------------------------------|
E |---------------------------------------------|
    Ahh…………			        one

e |-----0---0---0---0------0---0---0---0---|----0---0---0---0----------|
B |--0---0---0---0------0---0---0---0------|--0---0---0---0---0--------|
G |-------------------------------------------|------------------------|
D |-2-2---2---2---2---2-2---2---2---2----|-----------------------------|
A |-------------------------------------------|-0-0---0---0----0-0-----|
E |-------------------------------------------|------------------------|




e |-----0---0---0---0----|-----0---0---0---0---|------0---0----------|
B |--0---0---0---0---0--|--0---0---0---0------|---0---0--------------|
G |-----------------------|-----------------------|------------------|
D |-2-2---2---2---2--2-|-7-7---7---7---7-----|-----------------------|
A |-----------------------|-----------------------|-4--4---4---------|
E |-----------------------|-----------------------|------------------|
    I remember………					hey…x3






















CHORUS



e |------0---0----|------0---0----|-----0---0---0---0--------|
B |---0---0-------|---0---0-------|--0---0---0---0---0-------|
G |----------------|----------------|------------------------|
D |----------------|----------------|-2-2---2---2---2--2-----|
A |-4--4---4------|-0--0---0------|--------------------------|
E |----------------| ----------------|-----------------------|
    True…………			     that I can’t……and maybe

e |------0---0----|------0---0----|-----0---0---0---0--------|
B |---0---0-------|---0---0-------|--0---0---0---0---0-------|
G |----------------|----------------|------------------------|
D |----------------|----------------|-2-2---2---2---2--2-----|
A |-4--4---4------|-0--0---0------|--------------------------|
E |----------------| ----------------|-----------------------|
    Two……………	       better than one………                much

e |------0---0----|------0---0----|-----0---0---0---0--------|
B |---0---0-------|---0---0-------|--0---0---0---0---0-------|
G |----------------|----------------|------------------------|
D |----------------|----------------|-2-2---2---2---2--2-----|
A |-4--4---4------|-0--0---0------|--------------------------|
E |----------------| ----------------|-----------------------|
    Time…………  			      To figure out…….and you’re

e |------0---0----|------0---0----|-----0---0---0---0--------|
B |---0---0-------|---0---0-------|--0---0---0---0---0-------|
G |----------------|----------------|------------------------|
D |-7--7---7------|-2--2---2-----|-0-0---0---0---0---0-------|
A |----------------|----------------|------------------------|
E |----------------| ----------------|-----------------------|
     Already got me……………		           im thinking…















CHORUS



e |------0---0----|------0---0----|-----0---0---0---0--------|
B |---0---0-------|---0---0-------|--0---0---0---0---0-------|
G |----------------|----------------|------------------------|
D |----------------|----------------|-2-2---2---2---2--2-----|
A |-4--4---4------|-0--0---0------|--------------------------|
E |----------------| ----------------|-----------------------|
    Ohh…………			     that I can’t……and maybe

e |------0---0----|------0---0----|-----0---0---0---0--------|
B |---0---0-------|---0---0-------|--0---0---0---0---0-------|
G |----------------|----------------|------------------------|
D |----------------|----------------|-2-2---2---2---2--2-----|
A |-4--4---4------|-0--0---0------|--------------------------|
E |----------------| ----------------|-----------------------|
    Two……………	       better than one………                much

e |------0---0----|------0---0----|-----0---0---0---0--------|
B |---0---0-------|---0---0-------|--0---0---0---0---0-------|
G |----------------|----------------|------------------------|
D |----------------|----------------|-2-2---2---2---2--2-----|
A |-4--4---4------|-0--0---0------|--------------------------|
E |----------------| ----------------|-----------------------|
    Time…………  			      To figure out……but I

e |------0---0----|------0---0----|-----0---0---0---0--------|
B |---0---0-------|---0---0-------|--0---0---0---0---0-------|
G |----------------|----------------|------------------------|
D |-7--7---7------|-2--2---2-----|-0-0---0---0---0---0-------|
A |----------------|----------------|------------------------|
E |----------------| ----------------|-----------------------|
     Figure out when……………		                 done

e |------0---0----|------0---0----|-----0---0---0---0--------|
B |---0---0-------|---0---0-------|--0---0---0---0---0-------|
G |----------------|----------------|------------------------|
D |----------------|----------------|-2-2---2---2---2--2-----|
A |-4--4---4------|-0--0---0------|--------------------------|
E |----------------| ----------------|-----------------------|
    Two is better than one







OUTRO


e |-----0---0---0---0------|
B |--0---0---0---0---0-----|
G |------------------------|
D |-2-2---2---2---2--2-----|
A |------------------------|
E |------------------------|


e |-----0---0---0---0------|
B |--0---0---0---0---------|
G |------------------------|
D |-7-7---7---7---7--------|
A |------------------------|
E |------------------------|


e |------0---0----|------0---0----|-----0---0---0---0--------|
B |---0---0-------|---0---0-------|--0---0---0---0---0-------|
G |----------------|----------------|------------------------|
D |----------------|----------------|-2-2---2---2---2--2-----|
A |-4--4---4------|-0--0---0------|--------------------------|
E |----------------| ----------------|-----------------------|
     Two is better than  one…





Truly love is in the air as we celebrate the Valentine’s day ‘ . I made this tab 
together with the Celebration of the Month Of Hearts…^^ I dedicate this tab to my 2 Dameans for 
becoming part of my life. So, GuYz hanap na keyo ka-Date Ha! . Just Treasure the 
Past and Face the Future…
Tap to rate this tab
 
# A B C D E F G H I J K L M N O P Q R S T U V W X Y Z