Song name
# A B C D E F G H I J K L M N O P Q R S T U V W X Y Z

Boys Like Girls - Holiday tab

-------------------------------------------------------------------------------
                        Holiday LIVE - Boys Like Girls
-------------------------------------------------------------------------------
Description: This tab is the solo for Holiday (Live), which is played dropped half a
key. However, I figure that most of you would like to play the original, so I tabbed it in
the key of the original song. If you want to play the live, just simply move a fret down 
for each note. Thank you :)

Tabbed by: enochjchaung
E-mail: kyogre20910@gmail.com

Tuning: Standard

e|--------------------------------------12-----------------------------------|
B|------------------------------------------12-------------------------------|
G|-/9--------9-11p9-11/13--11-9-11---------------13--11h13p11----------------|
D|-----9h11---------------------------------------------------------14--11---|
A|---------------------------------------------------------------------------|
E|---------------------------------------------------------------------------|

e|-----------------------------------------------------12--14-12-----12------|
B|-------------------------------------12-12-14-12-14-------------14----14---|
G|---------9-11-11/13-11------9-9h11-----------------------------------------|
D|---9h11-----------------11-------------------------------------------------|
A|---------------------------------------------------------------------------|
E|---------------------------------------------------------------------------|

e|---------------------------------------------------------------------------|
B|-12---------------------------------------------10-9h10-9---------12/14----|
|------11h13p11-9--------9-11p9--11/13-11-9-11-------------11-9--------------|
D|------------------9h11-----------------------------------------9-----------|
A|---------------------------------------------------------------------------|
E|---------------------------------------------------------------------------|

e|--------12-14-12-14/16----17-16--------------------------------------------|
B|-12h14---------------------------17-16--17-16------------------------------|
G|----------------------------------------------16--14h16-14-13-14-13--------|
D|---------------------------------------------------------------------------|
A|---------------------------------------------------------------------------|
E|---------------------------------------------------------------------------|

e|---------------------------------------------------------------------------|
B|---------------------------------------------------------------------------|
G|-11h13p11------------------------------------------------------------------|
D|-----------14\-------------------------------------------------------------|
A|---------------------------------------------------------------------------|
E|---------------------------------------------------------------------------|



************************************

| /   slide up
| \   slide down
| h   hammer-on
| p   pull-off
| ~   vibrato
| +   harmonic
| x   Mute note
| b   Bend
| pb  Pre-bend
| br  Bend release
| pbr Pre-bend release
| brb Bend release bend

************************************
Tap to rate this tab
# A B C D E F G H I J K L M N O P Q R S T U V W X Y Z