Song name
# A B C D E F G H I J K L M N O P Q R S T U V W X Y Z

Boys Like Girls - Be Your Everything tab

Title:     Be Your Everything (Acoustic)
Artist:    Boys Like Girls
Tabbed by: Stephanyt28 (

tabbed it by ear, never a pro hehe... so if you ever find error(s) to my tab, please do 
feel free to inform me :) add me on fb ;)

Tuning: DADA#Be

Intro & Verse:

e |--0---0---0---0---0---0---0---0---|
B |----------------------------------|
D |----------------------------------|
A |----------------------------------|
D |----4---4---4---4---7---7---0---0-|


    now...        ...somehow
e |-0---0---0---0---(0)-|
B |---------------------|
D |---------------------|
A |---------------------|
D |---2---2---2---2-(0)-|


e |--x---x---x---x--|
B |--x---x---x---x--|
D |--7---2---9---0--|
A |--7---2---9---0--|
D |--7---2---9---0--|


e |--x---x---x---x---x---x----x----x--|
B |--x---x---x---x---x---x----x----x--|
D |--2---0---2---0---9---11---12---2--|
A |--2---0---2---0---9---11---12---2--|
D |--2---0---2---0---9---11---12---2--|

(Repeat Chorus)

you can use the same exact chords with the second chorus by using a Capo on the second 
fret, but if u don't have one or just doesn't feel like putting one then you can just 
simply shift them chords with two frets :)

e |--x---x---x----x--|
B |--x---x---x----x--|
D |--9---4---11---2--| repeat till outro ;)
A |--9---4---11---2--|
D |--9---4---11---2--|
Tap to rate this tab
# A B C D E F G H I J K L M N O P Q R S T U V W X Y Z