Song name
# A B C D E F G H I J K L M N O P Q R S T U V W X Y Z

Boys Like Girls - Great Escape tab

-------------------------------------------------------------------------------
                             The Great Escape - Boys Like Girls
-------------------------------------------------------------------------------
Tabbed by:Coldheart06
E-mail:enricopili06@gmail.com

Tuning:Standard(E,A,D,G,B,e)

e|---------------------------/16--17p16-14--|
B|----------12-14-16-17-17------------------|
G|---13-14----------------------------------|
D|------------------------------------------|
A|------------------------------------------|
E|------------------------------------------|

e|----------------------------/19-17---------------------------------------------------|
B|-----------12-14-16-17-17------------------------------------------------------------|
G|----13-14----------------------------------------------------------------------------|
D|-------------------------------------------------------------------------------------|
A|-------------------------------------------------------------------------------------|
E|-------------------------------------------------------------------------------------|

e|------------------16h17h19-19-17-16-14--|
B|-------16h17h19-------------------------|
G|-16h18----------------------------------|
D|----------------------------------------|
A|----------------------------------------|
E|----------------------------------------|


************************************

| /   slide up
| \   slide down
| h   hammer-on
| p   pull-off
| ~   vibrato
| +   harmonic
| x   Mute note
| b   Bend
| pb  Pre-bend
| br  Bend release
| pbr Pre-bend release
| brb Bend release bend
Tap to rate this tab
# A B C D E F G H I J K L M N O P Q R S T U V W X Y Z