Song name
# A B C D E F G H I J K L M N O P Q R S T U V W X Y Z

Boys Like Girls - Love Drunk tab

Love Drunk by Boys Like Girls
Standard Tuning: e B G D A E

--

Intro:

Lead                                 -  Rhythm
e|----------11----11----11-----------|--------------------------------------|
B|--8/9/11-----11----11----11--------|--------------------------------------|
G|-----------------------------------|--------------------------------------|
D|-----------------------------------|--13--8--6--13--8--6----8-------------|
A|-----------------------------(x4)--|--13--8--6--13--8--6----8-------------|
E|-----------------------------------|--11--6--4--11--6--4----6-------------|

Verse:

Lead/Rhythm
e|--------------------------------------------------------------------------|
B|--------------------------------------------------------------------------|
G|--------------------------------------------------------------------------|
D|--13--6--3--8---6---13--6--3--8-------------------------------------------|
A|--13--6--3--8---6---13--6--3--8-------------------------------------------|
E|--11--4--1--6---4---11--4--1--6-------------------------------------------|

Chorus:
e|--------------------------------------------------------------------------|
B|--------------------------------------------------------------------------|
G|--------------------------------------------------------------------------|
D|--10--6--13--8--10--6--13--8---6--8--10--8---10--6--13--8-----------------|
A|--10--6--13--8--10--6--13--8---6--8--10--8---10--6--13--8-----------------|
E|--8---4--11--6--8---4--11--6---4--6--8---6---8---4--11--6-----------------|

- REPEAT INTRO -
- REPEAT VERSE -
- REPEAT CHORUS -

Bridge: (Same Chords as Chorus)

"I used to be Love Drunk, but now I'm hung over. I love you forever. But now it's over" 
.. * Only 1 Strum each Same Chords from Chorus *

Ending Chorus: (2 Steps Higher)

Lead/Rhythm
e|--------------------------------------------------------------------------|
B|--------------------------------------------------------------------------|
G|--------------------------------------------------------------------------|
D|--12--8--15--10--12--8--15--10---8--10--12--10--12--8--15--10-------------|
A|--12--8--15--10--12--8--15--10---8--10--12--10--12--8--15--10-------------|
E|--10--6--13--8---10--6--13--8----6--8---10--8---10--6--13--8--------------|

Ending:

Lead                            -  Rhythm
e|-----------13----13----13-----|-------------------------------------------|
B|--10/11/13----13----13----13--|-------------------------------------------|
G|------------------------------|-------------------------------------------|
D|------------------------------|--15--10--8--------------------------------|
A|------------------------------|--15--10--8--------------------------------|
E|------------------------------|--13--8---6--------------------------------|

..

as you can see I tabbed this as played in a band. I didn't get the detailed guitar shizz 
from Paul DiGiovanni; instead simplified it. Was in a rush, haha. :)
Tap to rate this tab
# A B C D E F G H I J K L M N O P Q R S T U V W X Y Z