Song name
# A B C D E F G H I J K L M N O P Q R S T U V W X Y Z

Boys Like Girls - Heroheroine tab

I tabbed this for someone I love. She's my heroine.
This is for Lovely L******! From: Herman Niņo Luna IV
Special Thanks to Ezra Corcuera who helped me in some parts of the tabs. 

I hope you like it.


Drop D Tuning

Intro: Guitar 1
e|-------0--------0-------0--------0----|
B|---0--------0-------0--------0--------|
G|-5---5----5---5---5---5----5---5------|  DO THIS 6x
D|--------------------------------------|
A|--------------------------------------|
D|--------------------------------------|

Intro: Guitar 2
e|-8-8-8-8-8-8-8-8-8-8-8-8-8-8-8-8------|
B|--------------------------------------|
G|--------------------------------------|  wait for 2 rounds on guitar 1
D|--------------------------------------|  then guitar 2 come in.
A|--------------------------------------|
D|--------------------------------------|

e|--------------------------------------|
B|-8-8-8-8-8-8-8-8-8-8-8-8-8-8-8-8------|
G|--------------------------------------|  
D|--------------------------------------|  
A|--------------------------------------|
D|--------------------------------------|

e|--------------------------------------|
B|-5-5-5-5-5-5-5-5-5-5-5-5-5-5-5-5------|
G|--------------------------------------|  
D|--------------------------------------|  
A|--------------------------------------|
D|--------------------------------------|

e|--------------------------------------|
B|-6-6-6-6-6-6-6-6-6-6-6-6-6-6-6-6------|
G|--------------------------------------|  
D|--------------------------------------|  
A|--------------------------------------|
D|--------------------------------------|


Verse 1: Guitar 1
e|-------0--------0-------0--------0----|
B|---0--------0-------0--------0--------|
G|-5---5----5---5---5---5----5---5------|  DO THIS 8x
D|--------------------------------------|
A|--------------------------------------|
D|--------------------------------------|

Verse 1: Guitar 2 
e|-8-8-8-8-8-8-8-8-8-8-8-8-8-8-8-8------|
B|--------------------------------------|  
G|--------------------------------------|  
D|--------------------------------------|  
A|--------------------------------------|   D
D|--------------------------------------|   O
                                           
e|--------------------------------------|  
B|-8-8-8-8-8-8-8-8-8-8-8-8-8-8-8-8------|   T
G|--------------------------------------|   H
D|--------------------------------------|   I
A|--------------------------------------|   S
D|--------------------------------------|  

e|--------------------------------------|   T
B|-5-5-5-5-5-5-5-5-5-5-5-5-5-5-5-5------|   W
G|--------------------------------------|   O
D|--------------------------------------|  
A|--------------------------------------|   T
D|--------------------------------------|   I
                                            M
e|--------------------------------------|   E
B|-6-6-6-6-6-6-6-6-6-6-6-6-6-6-6-6------|   S
G|--------------------------------------|  
D|--------------------------------------|  
A|--------------------------------------|
D|--------------------------------------|


Pre-chorus: Guitar 1 (strum)
e|--------------------------------------|
B|--------------------------------------|
G|--------------------------------------|
D|-5-5-5557-777-7777-3-3-3333-333-3333--|
A|-5-5-5557-777-7777-3-3-3333-333-3333--|
D|-5-5-5557-777-7777-3-3-3333-333-3333--|

e|--------------------------------------|
B|--------------------------------------|
G|--------------------------------------|
D|-5-5-5557-777-7777---3----------------|
A|-5-5-5557-777-7777---3-LET RING-------|
D|-5-5-5557-777-7777---3----------------|

Pre-chorus: Guitar 2
e|--3-----3-----3-----3-----3--|            |---|
B|----3-----3-----3-----3------|            |---|
G|------0-----0-----0-----0----| DO THIS 3x |---|
D|-----------------------------|   THEN     |-3-|
A|-----------------------------|            |-3-|
D|-----------------------------|            |-3-|

Chorus: Guitar 1
e|-------0--------0-------0--------0----|
B|---0--------0-------0--------0--------|
G|-5---5----5---5---5---5----5---5------|  DO THIS 6x
D|--------------------------------------|
A|--------------------------------------|
D|--------------------------------------|

Verse 2: Guitar 1
e|-------0--------0-------0--------0----|
B|---0--------0-------0--------0--------|
G|-5---5----5---5---5---5----5---5------|  DO THIS 4x
D|--------------------------------------|
A|--------------------------------------|
D|--------------------------------------|

e|-------3--------3-------3--------3----|
B|---0--------0-------0--------0--------|
G|-5---5----5---5---5---5----5---5------|  DO THIS 4x
D|--------------------------------------|
A|--------------------------------------|
D|--------------------------------------|

Verse 2: Guitar 2  (DO THE WHOLE SEQUENCE 2 TIMES) the 2nd time is 
e|-8-8-8-8-8-8-8-8-8-8-8-8-8-8-8-8------|               palm-muted
B|--------------------------------------|
G|--------------------------------------| 
D|--------------------------------------| 
A|--------------------------------------|
D|--------------------------------------|

e|--------------------------------------|
B|-8-8-8-8-8-8-8-8-8-8-8-8-8-8-8-8------|
G|--------------------------------------|  
D|--------------------------------------|  
A|--------------------------------------|
D|--------------------------------------|

e|--------------------------------------|
B|-5-5-5-5-5-5-5-5-5-5-5-5-5-5-5-5------|
G|--------------------------------------|  
D|--------------------------------------|  
A|--------------------------------------|
D|--------------------------------------|

e|--------------------------------------|
B|-6-6-6-6-6-6-6-6-6-6-6-6-6-6-6-6------|
G|--------------------------------------|  
D|--------------------------------------|  
A|--------------------------------------|
D|--------------------------------------|

Repeat Pre-chorus.. It's just the same for the 2 guitars.

Chorus: Guitar 1 
e|-------0-------0-------0-------0------|
B|---0-------0-------0-------0----------|
G|-5---5---5---5---5---5---5---5--------| DO THIS 2x
D|--------------------------------------|
A|--------------------------------------|
D|--------------------------------------|

         BOTH GUITAR
e|--------------------------------------|
B|--------------------------------------|
G|--------------------------------------|
D|-----333-3333-3333--333-3333-3333-----|
A|-----333-3333-3333--333-3333-3333-----|
D|-----333-3333-3333--333-3333-3333-----|

e|--------------------------------------|
B|--------------------------------------|
G|-5---5--5-55-5555---------------------|
D|-5---5--5-55-5555---5---5--5-55-5555--|
A|-3---3--3-33-3333---5---5--5-55-5555--|
D|--------------------5---5--5-55-5555--|

e|--------------------------------------|
B|--------------------------------------|
G|--------------------------------------|
D|-----333-3333-3333--333-3333-3333-----|
A|-----333-3333-3333--333-3333-3333-----|
D|-----333-3333-3333--333-3333-3333-----|

Bridge: Guitar 1
e|--------------------------------------|
B|--------------------------------------|
G|--------------------------------------|   D
D|-7--7-7--7-7-7-7--7-7--7-7-7----------|   O
A|-7--7-7--7-7-7-7--7-7--7-7-7----------|
D|-7--7-7--7-7-7-7--7-7--7-7-7----------|   T
                                            H
e|--------------------------------------|   I
B|--------------------------------------|   S
G|--------------------------------------|
D|-5--5-5--5-5-5-5--5-5--5-5-5----------|   T
A|-5--5-5--5-5-5-5--5-5--5-5-5----------|   W
D|-5--5-5--5-5-5-5--5-5--5-5-5----------|   O

e|--------------------------------------|   T
B|--------------------------------------|   I
G|--------------------------------------|   M
D|-3--3-3--3-3-3-3--3-3--3-3-3----------|   E
A|-3--3-3--3-3-3-3--3-3--3-3-3----------|   S
D|-3--3-3--3-3-3-3--3-3--3-3-3----------|
                                           THEN
e|--------------------------------------|      
B|--------------------------------------|   O  S
G|--------------------------------------|   N  T
D|-5--7---3--5--7---3-------------------|   E  R 
A|-5--7---3--5--7---3-------------------|      U
D|-5--7---3--5--7---3-------------------|      M

Bridge: Guitar 2
e|----------12----------12----------12----------12-|
B|-12-13-12----12-13-12----12-13-12----12-13-12----|  DO
G|-------------------------------------------------|  THIS
D|-------------------------------------------------|  8x
A|-------------------------------------------------|
D|-------------------------------------------------|
          after 8x. wait to finish the one strum sequence of rhythm
          you can also play that (optional) Paul never played that :p

Chorus: Both Guitar
e|--------------------------------------|
B|--------------------------------------|
G|-5---5--5-55-5555---------------------|  D
D|-5---5--5-55-5555---5---5--5-55-5555--|  O
A|-3---3--3-33-3333---5---5--5-55-5555--|  
D|--------------------5---5--5-55-5555--|  T
                                           H
e|--------------------------------------|  I
B|--------------------------------------|  S
G|--------------------------------------|  
D|-----333-3333-3333--333-3333-3333-----|  F
A|-----333-3333-3333--333-3333-3333-----|  O
D|-----333-3333-3333--333-3333-3333-----|  U
                                           R
e|--------------------------------------|  
B|--------------------------------------|  T
G|--------------------------------------|  I
D|-----333-3333-3333--333-3333-3333-----|  M
A|-----333-3333-3333--333-3333-3333-----|  E
D|-----333-3333-3333--333-3333-3333-----|  S
                                           
                 THEN

e|---|
B|---|
G|-5-|
D|-5-|
A|-3-|
D|---|

ROCK N' ROLL GUYS.. \m/

Trivia: Song Meaning
A guy who have struggled relationship with his girlfriend then suddenly she
met another girl who comfort him every time he has a problem in his
relationship. He fall in love with this girl and he doesn't want her to go.
He will do everything to get this girl. He knows that this girl is his
inspiration to change his bad sides.

I just want to share :p 
HAHAHAHA. 
Tap to rate this tab
# A B C D E F G H I J K L M N O P Q R S T U V W X Y Z