Song name
# A B C D E F G H I J K L M N O P Q R S T U V W X Y Z

Boys Like Girls - Heels Over Head tab

tuning: Standard
legend:

^ & v - palm mute
~ - let it ring
[]-repeat chord
()-repeat the tab (the part only, not the whole tab)


VERSE I
 (I got your runaway...)     (you were worth a hundred thousand miles...)
E---------------------------------------------------------------------|
B---------------------------------------------------------------------|
G----8-[12x]----------------------------8-8-88--------8-8-88----------|
D----8--------8-[12x]-------------------8-8-88--6-6---8-8-88--6-6-----|
A----6--------8-------------------------6-6-66--6-6---6-6-66--6-6-----|
E-------------6---------------------------------4-4-----------4-4-----|

(i got your little brown shirt...)
E---------------------------------------------------------------------|
B---------------------------------------------------------------------|
G----8-[12x]----------------------------8-8-88--------8-8-88----------|
D----8--------8-[12x]-------------------8-8-88--6-6---8-8-88--6-6-----|
A----6--------8-------------------------6-6-66--6-6---6-6-66--6-6-----|
E-------------6---------------------------------4-4-----------4-4-----|

refrain: (yeah I'm the first to fall and the last to know... where'd you go?)
basically there are two parts, one on each speaker
    right speaker                left speaker           (i don't know... it doesn't 
haha)
E-------------------------|--------------6-(4x)----|
B-----------4-(4x)--------|-------4h6p4------------|
G-----3-h5----------------|------------------------|
D-------------------------|------------------------|
A-------------------------|------------------------|
E-------------------------|------------------------|

Chorus:
E---------------------------------------------------------------------|(2x)
B---------------------------------------------------------------------|
G---8-88-8888-----5-5------vvvvvvv-------------8-888888--5-5----------|
D---8-88-6666-----5-5----5-5555555--5/6-6------8-888888--5-5--5/6-6---|
A---6-66-6666-----3-3----5-5555555--5/6-6------6-666666--3-3--5/6-6---|
E--------^^^^------------3-3333333--3/4-4--------^^^^^^-------3/4-4---|

VERSE II
(repeat VERSE I tab)

Repeat Chorus

Bridge: (you're burning bridges baby...)|(you're a chance taker!heartbreaker! got me wrapp...)
E------------------------|-----------------------------------------------|
B------------------------|-----------------------------------------------|
G------------------------|--------------------------------------8~-------|
D---55-55-55--66~--------|---5-[7x]-6-[7x]--5-[7x]-6-[4x]-8-[7x]8~-------|
A---55-55-55--66~--------|---5------6-------5------6------8-----6~-------|
E---33-33-33--44~--------|---3------4-------3------4------6--------------|

keep playing
E
B
G  8
D  8
A  6
E  ^
up to the last word "mercedes"

and then just like "you were worth a hundred...."
E-------------------------------------------|
B-------------------------------------------|
G----8-8-88---------------------------------|
D----8-8-88--6-6---8~-----------------------|
A----6-6-66--6-6---8~-----------------------|
E------------4-4---6~-----------------------|

(repeat chorus)

and that's it. ^___^

hahahaha

comments :D
Tap to rate this tab
 
# A B C D E F G H I J K L M N O P Q R S T U V W X Y Z