Guitaretab - guitar tabs
Song name
# A B C D E F G H I J K L M N O P Q R S T U V W X Y Z

Boys Like Girls - The Great Escape tab

Intro
Guitar 1

E----------------------------------------------------|
B----------------------------------------------------|
G-----9----------9------------9-----------9----------|
D---9---9-----9-----9------9----9------9-----9-------|  x4
A-7--------6-----------------------------------------|
E-----------------------9-----------7----------------|
E----------------------------------------------------|
B----------------------------------------------------|
G9-9-9-9-9-9-9-9------------------------------------|
D9-9-9-9-9-9-9-9------------------------------------|
A7-7-7-7-6-6-6-6-11-11-11-11---9-9-9-9--------------|
E-----------------9-9-9-9---7-7-7-7--------------|

Guitar 2
E---------|
B---------|
G1-------|
D2-------|  Repeated Until Chorus
A2-------|
E0-------|

Verse
E--------------------------------------------------------------------------------------------------|
B--------------------------------------------------------------------------------------------------|
G6-6-6-6-6-6-6-6-6-6-6-6-6-6-6-62-2-2-2-2-2-2-2-2-2-2-2-2-2-2-2----------------------------------|
D6-6-6-6-6-6-6-6-6-6-6-6-6-6-6-62-2-2-2-2-2-2-2-2-2-2-2-2-2-2-22-2-2-2-2-2-2-2-2-2-2-2-2-2-2-2--|
A4-4-4-4-4-4-4-4-4-4-4-4-4-4-4-40-0-0-0-0-0-0-0-0-0-0-0-0-0-0-02-2-2-2-2-2-2-2-2-2-2-2-2-2-2-2--|
E-----------------------------------------------------------------0-0-0-0-0-0-0-0-0-0-0-0-0-0-0-0--|

E------------------------------------------------------------------|
B------------------------------------------------------------------|
G4-4-4-4-4-4-4-4-4-4-4-4-4-4-4-42-2-2-2-2-2-2-2-2-2-2-2-2-2-2-2--|
D4-4-4-4-4-4-4-4-4-4-4-4-4-4-4-42-2-2-2-2-2-2-2-2-2-2-2-2-2-2-2--|
A2-2-2-2-2-2-2-2-2-2-2-2-2-2-2-20-0-0-0-0-0-0-0-0-0-0-0-0-0-0-0--|
E------------------------------------------------------------------|

Chorus
Guitar 1
E------------------------------------------------------------------|
B------------------------------------------------------------------|
G6-6-6-6-6-6-6-62-2-2-2-2-2-2-2-----------------4-4-4-4-4-4-4-4--|
D6-6-6-6-6-6-6-62-2-2-2-2-2-2-22-2-2-2-2-2-2-24-4-4-4-4-4-4-4--|     X2
A4-4-4-4-4-4-4-40-0-0-0-0-0-0-02-2-2-2-2-2-2-22-2-2-2-2-2-2-2--|
E---------------------------------0-0-0-0-0-0-0-0------------------|

Chorus
Guitar 2
E------121614--|
B14-------------|
G----------------|
D----------------|
A----------------|
E----------------|

Post Chorus
E----------------------------------------------------|
B----------------------------------------------------|
G----------------------------------------------------|
D----------------------------------------------------|
A4-4-4-4-4-4-4-46-6-6-6-6-6-6-67-7-7-7-7-7-7-79--|
E2-2-2-2-2-2-2-24-4-4-4-4-4-4-45-5-5-5-5-5-5-57-|

Verse
Guitar 1
E--------------------------------------------------------------------------------------------------|
B--------------------------------------------------------------------------------------------------|
G6-6-6-6-6-6-6-6-6-6-6-6-6-6-6-62-2-2-2-2-2-2-2-2-2-2-2-2-2-2-2----------------------------------|
D6-6-6-6-6-6-6-6-6-6-6-6-6-6-6-62-2-2-2-2-2-2-2-2-2-2-2-2-2-2-22-2-2-2-2-2-2-2-2-2-2-2-2-2-2-2--|
A4-4-4-4-4-4-4-4-4-4-4-4-4-4-4-40-0-0-0-0-0-0-0-0-0-0-0-0-0-0-02-2-2-2-2-2-2-2-2-2-2-2-2-2-2-2--|
E-----------------------------------------------------------------0-0-0-0-0-0-0-0-0-0-0-0-0-0-0-0--|

E------------------------------------------------------------------|
B------------------------------------------------------------------|
G4-4-4-4-4-4-4-4-4-4-4-4-4-4-4-42-2-2-2-2-2-2-2-2-2-2-2-2-2-2-2--|
D4-4-4-4-4-4-4-4-4-4-4-4-4-4-4-42-2-2-2-2-2-2-2-2-2-2-2-2-2-2-2--|
A2-2-2-2-2-2-2-2-2-2-2-2-2-2-2-20-0-0-0-0-0-0-0-0-0-0-0-0-0-0-0--|
E------------------------------------------------------------------|

Guitar 2
E------|
B------|
G1----
D2----   Repeated Until Chorus
A2----
E0----
[ Tab from: http://www.guitaretab.com/b/boys-like-girls/92772.html ]
Chorus
Guitar 1
E------------------------------------------------------------------|
B------------------------------------------------------------------|
G6-6-6-6-6-6-6-62-2-2-2-2-2-2-2-----------------4-4-4-4-4-4-4-4--|
D6-6-6-6-6-6-6-62-2-2-2-2-2-2-22-2-2-2-2-2-2-24-4-4-4-4-4-4-4--|     X2
A4-4-4-4-4-4-4-40-0-0-0-0-0-0-02-2-2-2-2-2-2-22-2-2-2-2-2-2-2--|
E---------------------------------0-0-0-0-0-0-0-0------------------|

Chorus
Guitar 2
E------121614--|
B14-------------|
G----------------|
D----------------|
A----------------|
E----------------|

Post Chorus
E----------------------------------------------------|
B----------------------------------------------------|
G----------------------------------------------------|
D----------------------------------------------------|
A4-4-4-4-4-4-4-46-6-6-6-6-6-6-67-7-7-7-7-7-7-79--|
E2-2-2-2-2-2-2-24-4-4-4-4-4-4-45-5-5-5-5-5-5-57-|

Bridge
Both Guitars

E------------------------------------------------------------------|
B------------------------------------------------------------------|
G2-2-2-2-2-2-2-2-2-2-2-2-2-2-2-2----------------------------------|
D2-2-2-2-2-2-2-2-2-2-2-2-2-2-2-22-2-2-2-2-2-2-2-2-2-2-2-2-2-2-2--|
A0-0-0-0-0-0-0-0-0-0-0-0-0-0-0-02-2-2-2-2-2-2-2-2-2-2-2-2-2-2-2--|
E---------------------------------0-0-0-0-0-0-0-0-0-0-0-0-0-0-0-0-|

E--------------------------------------------------------------------|
B--------------------------------------------------------------------|
G---------------------------------4-4-4-4-4-4-4-4-4-4-4-4-4-4-4-4----|
D6-6-6-6-6-6-6-6-6-6-6-6-6-6-6-64-4-4-4-4-4-4-4-4-4-4-4-4-4-4-4----|
A6-6-6-6-6-6-6-6-6-6-6-6-6-6-6-62-2-2-2-2-2-2-2-2-2-2-2-2-2-2-2----|
E4-4-4-4-4-4-4-4-4-4-4-4-4-4-4-4------------------------------------|

Solo
Guitar 1
E------------------------------------------------------------------|
B------------------------------------------------------------------|
G6-6-6-6-6-6-6-6-6-6-6-6-6-6-6-64-4-4-4-4-4-4-4-4-4-4-4-4-4-4-4--|
D6-6-6-6-6-6-6-6-6-6-6-6-6-6-6-64-4-4-4-4-4-4-4-4-4-4-4-4-4-4-4--|     X2
A4-4-4-4-4-4-4-4-4-4-4-4-4-4-4-42-2-2-2-2-2-2-2-2-2-2-2-2-2-2-2--|
E------------------------------------------------------------------|
Solo
Guitar 2
E--------------------19-21-19-17*----------------------19-17*---------------19-17-16-14*--|
B12-14-16-16-17-17*--------------12-14-16-16-17-17-17-------------14-16-17---------------|
G------------------------------------------------------------14-16------------------------|
D-----------------------------------------------------------------------------------------|
A-----------------------------------------------------------------------------------------|
E-----------------------------------------------------------------------------------------|

Bridge
E----------------------------------------------------------------|
B----------------------------------------------------------------|
G6*--2*------4*---6*--2*-------4-4-4-4-4-4-4-4-4-4-4-4-4-4-4-4--|
D6*--2*--2*--4*----6*--2*--2*--4-4-4-4-4-4-4-4-4-4-4-4-4-4-4-4--|
A4*--0*--2*--2*----4*--0*--2*--2-2-2-2-2-2-2-2-2-2-2-2-2-2-2-2--|
E---------0*----------------0*-----------------------------------|

Chorus
Guitar 1
E------------------------------------------------------------------|
B------------------------------------------------------------------|
G6-6-6-6-6-6-6-62-2-2-2-2-2-2-2-----------------4-4-4-4-4-4-4-4--|
D6-6-6-6-6-6-6-62-2-2-2-2-2-2-22-2-2-2-2-2-2-24-4-4-4-4-4-4-4--|     X2
A4-4-4-4-4-4-4-40-0-0-0-0-0-0-02-2-2-2-2-2-2-22-2-2-2-2-2-2-2--|
E---------------------------------0-0-0-0-0-0-0-0------------------|

Chorus
Guitar 2
E------121614--|
B14-------------|
G----------------|
D----------------|
A----------------|
E----------------|

Post Chorus
E----------------------------------------------------|
B----------------------------------------------------|
G----------------------------------------------------|
D----------------------------------------------------|
A4-4-4-4-4-4-4-46-6-6-6-6-6-6-67-7-7-7-7-7-7-79--|
E2-2-2-2-2-2-2-24-4-4-4-4-4-4-45-5-5-5-5-5-5-57-|

Guitar 2
E---------|
B---------|
G1-------|
D2-------|  Repeated Until Fade Out
A2-------|
E0-------|
Related for The Great Escape tab