Song name
# A B C D E F G H I J K L M N O P Q R S T U V W X Y Z

Boys Like Girls - Thunder Live tab

"THUNDER" By Boys Like Girls Live verison from AOL Sessions.
it took me awhile to figure out but it's very simple. Enjoy!

(Not in standard tuning)

tuning-
C.G.C.E.G.C


(Lead guitar)
C.--------7---------7-7------------7-------7----7----|
G.-------9-9-------7---7----------5------5-----5-----|
E.---8--8---8--7--7-----7----5---5---5--5---7-7------|
C.--0--0------0--0-------0--0--0----0--0---0-0-------|
G.---------------------------------------------------|
C.---------------------------------------------------|


Rythem
C.---0--0--0--0-|
G.---0--0--0--0-|
E.---8--8--0--8-|
C.---0--7--5--7-|
G.---O--4--5--7-|
C.---O--O--5--7-|

C.--0--0--0--0----o--0--0-|
G.--0--o--0--0----o--0--0-|
E.--8--8--0--8----o--8--0-|
C.--0--7--5--7----5--7--0-|
G.--o--7--5--7----5--7--0-|
C.--o--7--5--7----5--7--0-|
            ^2X


C.--x--x--x--x--x--x--x--x--x--x---|o
G.--x--x--x--x--x--x--x--x--x--x---|o
E.--0--x--x--x--x--x--x--x--x--x---|o
C.--0--9--7--5--7--0--9--7--5--7---|o
G.--0--9--7--5--7--0--9--7--5--7---|o
C.--0--9--7--5--7--0--9--7--5--7---|o


have a question? Email me at
Run-boy-run@hotmail.com
Tap to rate this tab
# A B C D E F G H I J K L M N O P Q R S T U V W X Y Z