Song name
# A B C D E F G H I J K L M N O P Q R S T U V W X Y Z

Boys Night Out - Dreaming tab

/ = slide up
\ = slide down
' = slide up and down really fast
h = hammer on
p = pull off
* = palm mute
" = strum at double speed, two strums for every one number
x = stop sound
s = scratching

INTRO - from "on some nights you'll find me falling" to "but you're buried or suffocating"

this part leads in, play once

guitar1
-----------------|
-----------------|
-----------------|
------3----------|
3--------4--2h4--|
---7-------------|

guitar2
-----------------|
-----------------|
-----------------|
------3-----1h2--|
3--------4-------|
---7-------------|


second part of the intro, play twice

guitar1
---------------------------------------------------0-----0--0--------|
-----------------------------------------------------0h2------0h2p0--|
----------------6-6x---6x-----sss----------------2--2-----2--2-------|
4-444444444444446-6x---6x-----sss2--4444444444'---------2----------2-|
4-444444444444444-4x---4x-----sss2--4444444444'----------------------|
4-44444444444444-----------------2--4444444444'----------------------|
  **************                     *********
guitar2
----------------------------------------------------------------------------|
----------------------------------------------------------------------------|
----------------6-6x---6x-----sss----------------14-141414141413-1313131313-|
4-444444444444446-6x---6x-----sss4--4444444444'---x--x-x-x-x-x-x--x-x-x-x-x-|
4-444444444444444-4x---4x-----sss4--4444444444'--12-121212121211-1111111111-|
4-44444444444444-----------------4--4444444444'-----------------------------|
  **************                     *********   dont get confused here, the numbers are just in
                                                 the teens

verse lead-in - both guitars
-------------------------------------------------------------------|
-------------------------------------------------------------------|
----------------------------------------------------9-9999-999-----|ssss
4-4444444444444---6-2---642--------6-7-----9-11-----9-9999-999-----|ssss
4-44444444444444------4----------------7-9-----9----7-7777-777-----|ssss
4-4444444444444-------------7\6-4----------------7--7-7777-777-----|
  ******* ** **


VERSE - "or worse, tonight it's worse, tonight the screaming hurts..."

guitar1
-----------------------------------------------------------------|
-----------------------------------------------------------------|
------6----------------------------------------------------------|
------6-------------------------------4--------------------------|
------4-------------------------------4--------------------------|
7--6----------------------------7--6--4--------------------------|

-----------------------------------------------------------------|
-----------------------------------------------------------------|
------6----------------------------------------------------------|
------6----------------------------------------------------------|
------4----------------------------------------------------------|
7--6----------------------------7--6--6--------------------------|

guitar2
----------------7-------5---4-------------------7-----------------|
-------------------5-------------------------------5----------7---|
6--4------------------6---------6--4------------------6--4h6------|
------6-------------------------------4---------------------------|
------------------------------------------------------------------|
------------------------------------------------------------------|

----------------7-------5---4-------------------------------------|
-------------------5----------------------------------------------|
6--4------------------6---------6--4------------------------------|
------6-----------------------------------------------------------|
--------------------------------------3---------------------------|
------------------------------------------------------------------|


CHORUS LEAD-IN

guitar1
-----------------------|
-----------------------|
-----------------------|
-----------------------|
-------2--6--6h7p6-23x-|
'---6------------------|

guitar2
-----------------------|
-----------------------|
-----------------------|
-------------------12x-|
-------2--6--6h7p6-----|
'---6------------------|


CHORUS - "tonight im wrapped up in her" to "something inseperable"  play twice

guitar1
----------------------------------------------------------------|
----------------------------------------------------------------|
6-6-6666-6666666------------------------------------------------|
6-6-6666-66666666-6-6666-66666669-9-9999-9999999----------------|
4-4-4444-44444446-6-6666-66666669-9-9999-9999999------------23x-|
----------------6-6-6666-66666669-9-9999-999999966666-66666-----|
                                                " "   " "
                                                ****  ****

guitar2
-------------------------------------------------------------------------------|
-------------------------------------------------------------------------------|
11-11-1111119-99-999911-11-1111118-88-888811-11-1111119-99-9999----------------|
-x--x--x-x-xx-xx-xxxx-x--x--x-x-xx-xx-xxxx-x--x--x-x-xx-xx-xxxx------------12x-|
-9--9--9-9-97-77-7777-9--9--9-9-96-66-6666-9--9--9-9-97-77-7777----3-----3-----|
---------------------------------------------------------------6666--6666------|
                                                               " "   " "
                                                               ****  ****

CHORUS LEAD-OUT

guitar1
---------------------------------------------------------------|
---------------------------------------------------------------|
6--------------------------------------------------------------|
6---------------4--------------7--------------7-------10-------|
4---------------4--------------7--------------7--------7-------|
----------------4--------------7--------------7--------7-------|

guitar2
-------------------------------------------------------------------|
-------------------------------------------------------------------|
-------------------------------------------------------------------|
-------2-4-------------2-4h66-4p2--------2-4-------------4h6-------|
4--2-4----------4--2-4------------4--2-4----------4----------------|
-------------------------------------------------------------------|


NEXT PART (haha i dont know what to call it) - "this coma kiss is infinite" to "bluish hues and darker greys"
play twice

guitar1
-----------------------------------------------------------------|
-----------------------------------------------------------------|
----------------6-6-6666-6666666---------------------------------|
4-4-4444-44444446-6-6666-66666664-4-4444-4444447-77-7777-7777777-|
4-4-4444-44444444-4-4444-44444444-4-4444-4444447-77-7777-7777777-|
4-4-4444-4444444----------------4-4-4444-4444447-77-7777-7777777-|

guitar2 - numbers are in the teens, just put a 1 out front
77774444--------66662222--------77774444-------99999999999999999-|
--------33334444--------33334444--------3333444------------------|
-----------------------------------------------------------------|
-----------------------------------------------------------------|
-----------------------------------------------------------------|
""""""""""""""""""""""""""""""""""""""""""""""""""""""""""""""""

NEXT = 4 measures of bass, play verse lead-in, verse, chorus lead-in,
       stop 2 beats for the long singing note, chorus,
       then both guitars play guitar 1 part for chorus lead-out


BRIDGE (haha)

just guitar 1----------------------------------------------------|guitar 2 comes in here, played with "i see her"
-----------------------------------------------------------------|
----5-55-55-5555----5-55-55-5555----5-55-55-5555-----------------|
6---6-66-66-66666---6-66-66-66666---6-66-66-6666---------sss-----|
6---6-66-66-66666---6-66-66-66666---6-66-66-66666--6--6--sss6h9--|
4---4-44-44-44444---4-44-44-44444---4-44-44-44446--6--6--sss6h9--|
------------------------------------------------6--6--6-----6h9--|


"hair spread across the floor" to "cause something's not riiiiiiiiiiiiiiiiiiiiiiiiiiiiiight"
play 4 times

guitar1

--------------------------------------|
--------------------------------------|
6666x-6x-4--sss4x---------ssss4/6x----|
6666x-6x-x--sss4x-4-------ssss4/6x-4x-|
4444x-4x-2--sss2x-4--2h4--ssss2/4x-4x-|
6666x-6x----------4-----4----------4x-|

guitar2
-------------------------------------11-11-14\-|
-----------------------10h12---12x-14----------|
------------9h11------------11-----------------|
--6h9------------9-----------------------------|
4----7-----------------------------------------|
-------6x-6--------14\-------------------------|


"riiiiiiiiiiiiiiiiiiiiiiiiiiiiiiiiiight"

--------------------------------|
--------------------------------|
6-------\----------------44-6---|
6-------\----------------44-6---|
4-------\----------------22-4---|
--------------------------------|
                         *

OUTRO

guitar 1 - played four times

---------------------------------------------------|
---------------------57----------------------------|
---2x--4--------69----------2x--2-------------4----|h6
---------6--------6--------------4--------3--------|
----------------------------------------3----4-----|
4-----------4------------4----------4----7---------|

guitar 2 - played last two times

16-17-16-17-21-----------16-17-16-17-19-----------19-17-16---------|
-----------------19-----------------------17---------------17------|
-------------------------------------------------------------------|
-------------------------------------------------------------------|
-------------------------------------------------------------------|
-------------------------------------------------------------------|

-------------------------------------------------------------------|
14-17-14-17-19---14------14-17-14-17-19---14------14---------------|
-----------------------------------------------------16-14---------|
-----------------------------------------------------------16------|
-------------------------------------------------------------------|
-------------------------------------------------------------------|


last note on guitar one is 444 chord
Tap to rate this tab
 
# A B C D E F G H I J K L M N O P Q R S T U V W X Y Z