Song name
# A B C D E F G H I J K L M N O P Q R S T U V W X Y Z

Boys Night Out - Yeah No I Know tab

DADGBE
1sttime
|----------------------4-2-------------------------------|
|--------------------------------------------------------|
|-------------6---------------------------6~--------6~---|
|-------6~-------3h4-------4----3------------------------|
|----------------------------------4---------------------|
|-8~---------------------------------4~-------6h7--------|

Reapeat this, mabye a few little fills, whatev.
|----------------------4-2-------------------------------|
|--------------------------------------------------------|
|-------------6---------------------------6~--------6~---|
|-------6~-------3h4-------4----3------------------------|
|----------------------------------4---------------------|
|-8--8--------------------------------4~-------6h7-------|

Tabbed by Mike Bottriell
the_dc_theory@hotmail.com
Tap to rate this tab
# A B C D E F G H I J K L M N O P Q R S T U V W X Y Z