Guitaretab - guitar tabs
Song name
# A B C D E F G H I J K L M N O P Q R S T U V W X Y Z

Boys Night Out - A Torrid Love Affair tab

Boys Night Out
A Torrid Love Affair

This is my second attempt at tabbing this song and this one is actually good. It's not 
right though but I hope someone who is better at tabbing songs corrects it for me. 
L.

standard tuning

Intro: Guitar One
(0:00-0:26)
|----------------------------------------|
|----------------------------------------|
|----------------------------------------|
|-999-777-55555-9999-7-5-7-5-5555-222(2)-|
|-777-555-33333--------------3333-000(0)-|5X
|----------------------------------------|

Intro: Guitar Two--comes in after guitar one plays ^that riff once and i'm not sure if 
chords are right but oh well.
(0:06-0:26)
|----------------------------------------|
|----------------------------------------|
|-777-555-44444-7777-5-4-5-4-------------|
|-999-777-55555--------------5555-222(2)-|
|----------------------------3333-000(0)-|
|----------------------------------------|

*Note:it is possible to play this harmonizing part with one guitar like this
|--------------------------------------|
|--------------------------------------|
|-777-555-44444-7777-5-4-5-4-----------|
|-999-777-55555-9999-7-5-7-7-5555-2222-|
|-777-555-33333--------------3333-0000-|
|--------------------------------------|


Verse: Guitar One--the dots represent palm mutes
(0:27-0:43)
|------------|--|-----------------------|
|------------|--|-----------------------|
|------------|--|-555555555555555555555-|
|(22-2-2222)-|--|-555555555555555555555-|
|(22-2-2222)-|4X|-333333333333333333333-|
|(00-0-0000)-|--|-----------------------|
       ....

Verse: Guitar Two
(0:27-0:36)
|-----------------------------|--|--------------------------------------|
|-----------------------------|--|--------------------------------------|
|-16-16--16-------16-16-16/14-|--|-121212121212121212121212121212121212-|
|--x--x---x--------x--x--x--x-|--|--x-x-x-x-x-x-x-x-x-x-x-x-x-x-x-x-x-x-|
|-14-14--14-------14-14-14/12-|2X|-101010101010101010101010101010101010-|
|------------0000-------------|--|--------------------------------------|
             ....

Verse: Guitar Two cont'd
(0:37-0:43)
|---------------------------------------------|------------------------|
|---------------------------------------------|------------------------|
|-1616-16----1414-14----1212-12----1414-14----|-1212121212121212121212-|
|--x-x--x-----x-x--x-----x-x--x-----x-x--x----|--x-x-x-x-x-x-x-x-x-x-x-|
|-1414-14----1212-12----1010-10----1212-12----|-1010101010101010101010-|
|---------00---------00---------00---------00-|------------------------|
          ..         ..         ..         ..


Fill --note: 12-11-12 are probably all pinch harmonics
(0:44-0:46)
|-----------------------|
|-----------------------|
|-16/12\14/12--12-11-12-|
|--x--x--x--x-----------|
|-14/10\12/10-----------|
|-----------------------|

the other guitar is probably harmonizing with this
|----------|
|----------|
|----------|
|-11/7\9/7-|
|--x-x-x-x-|
|--9/5\7/5-|

[ Tab from: http://www.guitaretab.com/b/boys-night-out/49176.html ]
Pre-chorus Guitar One--listen to the song for how many times to play each chord
(0:47-0:55)
|---|---|---|---|
|---|---|---|---|
|---|---|-5-|-2-|
|-2-|-5-|-5-|-2-|
|-2-|-5-|-3-|-0-|
|-0-|-3-|---|---|

Pre-chourus Guitar Two
(0:47:-0:55)
|---|---|----------|---|
|---|---|----------|---|
|---|---|-16/17\16-|-2-|
|-2-|-5-|--x--x--x-|-2-|
|-2-|-5-|-14/15\14-|-0-|
|-0-|-3-|----------|---|


Chorus Guitar One--it's basically the same chords as the pre-chorus
(0:55-1:24)
|---|---|---|---|
|---|---|---|---|
|---|---|-5-|-2-|
|-2-|-5-|-5-|-2-|
|-2-|-5-|-3-|-0-|
|-0-|-3-|---|---| just fool around with it until you get it.

Chorus Guitar Two--mess with these octaves
(0:55-1:24)
|---------------------------------|
|---------------------------------|
|-12---11----14----16----17----19-|
|--x----x-----x-----x-----x-----x-|
|-10----9----10----14----15----17-|
|---------------------------------|

Bridge both guitars--after you play this twice mute the strings inbetween playing them
(1:25-1:54)
|---------------------------------------------|
|---------------------------------------------|
|----------------------------55-22222---12-11-|
|-55555--77--55555-5-5-55555-55-22222----x--x-|
|-55555--55--33333-2-0-55555-33-00000---10--9-|4X
|-33333----------------33333------------------|


Chorus (1:56-2:24)


Interlude Guitar One--i couldn't get the harmonics that come in around 3:13
(2:25-2:49)
|-----------------0-0------------------0~-------------------|
|-------------0-7/8-5--------------0-7/8~-------------------|
|----------6/7------------------6/7--------------------9~---|
|---------0--------------------0-------------------------7~-|
|------7/9------------------7/9------------------7----------|2X
|-5h7h8----------------5h7h8--------------5h7h8-----5~~-----|

cont'd--keep playing this until outro
(2:50-3:39)
|-----------------0-0------------------0~-------------------------------|
|-------------0-7/8-5--------------0-7/8~-------------------------------|
|----------6/7------------------6/7-------------------------------------|
|---------0--------------------0----------------------------------------|
|------7/9------------------7/9------------------7------7h8p7-7h8p7h8p7-|
|-5h7h8----------------5h7h8--------------5h7h8-----5~~-----------------|


Outro Guitar One
(3:40-4:14)
|-----------------------------------------------------------------|
|-----------------------------------------------------------------|
|-----------------------------------------------------------------|
|2~2~2~2~2------10~10~10~~-7-777777777777-1010-101010-1010-101010-|
|2~2~2~2~2------10~10~10~~-7-777777777777-1010-101010-1010-101010-|2X
|0~0~0~0~0-------8~-8~-8~~-5-555555555555--8-8--8-8-8--7-7--7-7-7-|

Outro Guitar Two
(3:40-4:14)
|-----------------------------------------------|
|-----------------------------------------------|
|-----------------------------------16/14/12/14-|
|2~2~2~2~2------10~10~10~~-7-777777--x--x--x--x-|
|2~2~2~2~2------10~10~10~~-7-777777-14/12/10/12-|2X
|0~0~0~0~0-------8~-8~-8~~-5-555555-------------|


both guitars end with
|----------------------|
|----------------------|
|----------------------|
|-2~2~2~2~2------10~10-|
|-2~2~2~2~2------10~10-|
|-0~0~0~0~0-------8~-8-|


wow that took me from like 3AM to 8AM to tab,I hope you all enjoy it.
Related for A Torrid Love Affair tab