Song name
# A B C D E F G H I J K L M N O P Q R S T U V W X Y Z

Boys Night Out - The First Time It Shouldnt Taste Like Blood tab

BOYS NIGHT OUT
THE FIRST TIME SHOULDN'T TASTE LIKE BLOOD


intro
|----------------------------------------------|
|----------------------------------------------|
|------6p4-6-4-6-4---------3-2-----------------|
|-6-66----6---6---66--00--------3-2222222222---|
|-7-77----------------00----------2222222222---|
|-7-77----------------00----------2222222222---|
		      ..	  ..  . .

verse
|--------------------------------------------------------------|
|--------------------------------------------------------------|
|--6-7-9-6-7---8-9-11-8--14-13-11-------------77-55------------|
|-7----------7----------------------7777-4444-------00-00-0-0--|
|------------------------12-11-9----7777-4444-55-33-00-00-0-0--|
|-----------------------------------7777-4444-------00-00-0-0--|


						             thispart is
							  at :50.
                                                             its just
chorus							     a guess.
|--------------------------------------------------------------------------|
|--------------------------------------------------------------------------|
|-------------------0-4-5-0-7-4----------14-13-14-13-14-------2345432<3>---|
|-44-44--99-99-0000-------------44-99-99----------------4-7-2------------0-|
|-44-44--99-99-0000-------------44-99-99-12-11-12-11-12-4-7-2------------0-|
|-44-44--99-99-0000-------------44-99-99----------------4-7-2------------0-|
	       ....

post chorus
|--------------------|
|-------------11-9-7-|
|----77-7-8-10-------|
|-00-77--------------|
|-00-----------------|
|-00-----------------|
  ..


verse


this is the part after the 2nd verse and before 2nd chorus
|----------------------------------------------|
|----------------------------------------------|
|-9------6~---6-----9~--9-----6~-6-------------|
|--7-6h8-------7-6h7-----7-6h8----7-7-22-22-2--|
|-------------------------------------22-22-2--|
|-------------------------------------22-22-2--|

chorus


breakdown thingy

	x3		after 3rd time
|-----------------|-----------------------|
|-8-----8---------|-8---------------------|
|--6-----6--------|--6--------------------|
|---7-0---7h9-7-0-|---77~---777-66-7-6-4--|
|-----0------9--0-|-----------------------|
|-----0---------0-|-----------------------|


These are the two endings played twice. Harmonics or rhythm.
|------------------------------------------------------------------------|
|------------------------------------------------------------------------|
|-<7>-------<7>-------<7>-------<7>--------------------------------------|
|--------------<7>-----------------<7>--<7>-------<7>----<7>-------<7>---|
|----<5>-<7>-------------<5>-<7>---------------------<7>--------------<7>|
|------------------------------------------<5>-<7>----------<5>-<7>------|

|-------------------------------------------------------------------------|
|-------------------------------------------------------------------------|
|---------6----6------6----6---------------------------5-6-5-8-6-5-6------|
|-4444-00-6-00-6-0000-6-00-6-77-7-7-22-44--1111111111---------------------|
|-4444-00-4-00-4-0000-4-00-4-77-7-7-22-44--1111111111-(elevens)-----------|
|-4444-00---00---0000---00---77-7-7-22-44--1111111111---------------------|
       ..   ..   ....   ..
Tap to rate this tab
# A B C D E F G H I J K L M N O P Q R S T U V W X Y Z