Guitaretab - guitar tabs
Song name
# A B C D E F G H I J K L M N O P Q R S T U V W X Y Z

Boys Night Out - Just Once Lets Do Something Different tab

---------------------------------------------------------------------------
	JUST ONCE (LET'S DO SOMETHING DIFFERENT) - Boys Night Out
---------------------------------------------------------------------------
Tabbed by: Brian Brady
Email: brianblink182@yahoo.com

Okay I know this tab isn't complete or totally right but it gives you the basic idea and
I figured if I put up a rough tab of it that someone else could make a better tab out of
it. 

Tuning: drop D


Come in after "I've got these scars that I'm-" Play it choppy. Figure out the rhythm yourself.
[ Tab from: http://www.guitaretab.com/b/boys-night-out/54886.html ]
e|-------------------------------------------------------------------|
B|-------------------------------------------------------------------|
G|-----------------------------------------------4-4-4-4-4-4-4-4-----|
D|-2-2-2-2-2-2-2-2/4-4-4-4-4-4-4-4\2-2-2-2-2-2-2-4-4-4-4-4-4-4-4-----|
A|-2-2-2-2-2-2-2-2/4-4-4-4-4-4-4-4\2-2-2-2-2-2-2-2-2-2-2-2-2-2-2-----|
D|-2-2-2-2-2-2-2-2/4-4-4-4-4-4-4-4\2-2-2-2-2-2-2---------------------|
 
Keep doing that until "Sister...I've seen things this summer..." (I haven't figured that
part out yet so i'll skip to the bridge/second verse/whatever the hell it is)





e|-----------------------------------------------------------------|
B|----------------------5-4---7-5p4h5p4----------------------------|
G|--------------------------5-----------5~-------------------------|
D|-----------------------------------------------------------------|
A|-6~-6h9-4~--4h6-2~-----------------------------------------------|
D|-6~-6h9-4~--4h6-2~-----------------------------------------------|

I know that last part isn't totally correct but oh well.


Then this part starting when he sings "Conflicting turn signals"

e|---------------------------------------------------------------|
B|---------------------------------------------------------------|
G|-4-4-4-4-4-4-4-4-----------------------------------------------|
D|-4-4-4-4-4-4-4-4-2-2-2-2-2-2-2-2/4-4-4-4-4-4-4-4\2-2-2-2-2-2-2-|
A|-2-2-2-2-2-2-2-2-2-2-2-2-2-2-2-2/4-4-4-4-4-4-4-4\2-2-2-2-2-2-2-|
D|-----------------2-2-2-2-2-2-2-2/4-4-4-4-4-4-4-4\2-2-2-2-2-2-2-|
 PM* * * * * * * * * * * * * * * * * * * * * * * * * * * * * * * 
 
Let off the palm mutes gradually around "an impulse still searching for the gun" an then
play the rest of it without palm muting.
Related for Just Once Lets Do Something Different tab
×
Best way to learn
"Just Once Lets Do Something Different"