Guitaretab - guitar tabs
Song name
# A B C D E F G H I J K L M N O P Q R S T U V W X Y Z

Boys Night Out - Relapsing tab

----------------------------------------------------------------------------   
RELAPSING (OFF THE NEW ALBUM TRAINWRECK: JULY 25)- Boys Night Out
----------------------------------------------------------------------------
Tabbed by: Spencer S.

Tuning:Drop D

Intro:


e|---------------------------|                 
B|---------------------------|
G|-4-------------------------|
D|-4--6-4----6-4----4--6--5--| x2  
A|-2--2-2-6--2-2-6--4--6--5--|
D|----2-2-2--2-2-2--4--6--5--|

e|-----|
B|-----|
G|-4---|
D|-4---| End of 2nd time do that.
A|-2---|
D|-----|

Verse:

GUITAR 1:
e|--------------------------------------------------x-x-x-x-|
B|--------------------------------------------------x-x-x-x-|
G|-4~------3~--4~-----------4~------3~--4~----------x-x-x-x-|
D|-4~--2~--3~--4~--6~--4~---4~--2~--3~--4~--6~------x-x-x-x-|
A|-2~--2~--1~--2~--6~--4~---2~--2~--1~--2~--6~------x-x-x-x-|
D|-----2~----------6~--4~-------2~----------6~--5b--x-x-x-x-|

GUITAR 2:
e|-------------------------|
B|-------------------------|
G|-4~------3~--4~--4~--6~--|
D|-4~--2~--3~--4~--4~--6~--|
A|-2~--2~--1~--2~--2~--4~--|
D|-----2~------------------|

GUITAR 2'S SOLO (from mxtabs.net):
e|--------------------------7h9-9-14--------------------------|
B|----------9--9-7-5-2/4-0-----------9 7h9--------------9-----|
G|---6-h8p---------------------------------4h6-6h8-8h10-------|
D|------------------------------------------------------------|
A|------------------------------------------------------------|
D|------------------------------------------------------------|

GUITAR 2 AFTER SOLO:
e|------x-x-x-x--|
B|------x-x-x-x--|
G|------x-x-x-x--|
D|------x-x-x-x--|
A|------x-x-x-x--|
D|--5b--x-x-x-x--|

CHORUS:

GUITAR 1:
e|---------------------------|                 
B|---------------------------|
G|-4-------------------------|
D|-4--6-4----6-4----4--6--5--| x2  
A|-2--2-2-6--2-2-6--4--6--5--|
D|----2-2-2--2-2-2--4--6--5--|

e|-----|
B|-----|
G|-4---|
D|-4---| End of 2nd time do that.
A|-2---|
D|-----|
[ Tab from: http://www.guitaretab.com/b/boys-night-out/61700.html ]
GUITAR 2:
e|------------------------------------------------------------------------|
B|------------------------------------------------------------------------|
G|-4-6-8---13--11--8--13--11--8---13--13--11-11--8--8--4--4---4/11--4/11--|
D|-x-x-x----x---x--x---x---x--x----x---x---x--x--x--x--x--x---x-/x--x-/x--|
A|-2-4-6---10---9--6--10---9--6---10--10---9--9--6--6--2--2---2-/9--2-/9--|
D|------------------------------------------------------------------------|

e|-----|
B|-----|
G|-4---|
D|-4---| End of 2nd time do that.
A|-2---|
D|-----|

VERSE 2:

GUITAR 1:
e|--------------------------------------------------|
B|--------------------------------------------------|
G|-4~------3~--4~-----------4~------3~--4~----------|
D|-4~--2~--3~--4~--6~--4~---4~--2~--3~--4~--6~--5~--|
A|-2~--2~--1~--2~--6~--4~---2~--2~--1~--2~--6~--5~--|
D|-----2~----------6~--4~-------2~----------6~--5~--|

3rd and 4th times palm muted:
e|--------------------------------------------------x-x-x-x-|
B|--------------------------------------------------x-x-x-x-|
G|-4~------3~--4~-----------4~------3~--4~----------x-x-x-x-|
D|-4~--2~--3~--4~--6~--4~---4~--2~--3~--4~--6~------x-x-x-x-|
A|-2~--2~--1~--2~--6~--4~---2~--2~--1~--2~--6~------x-x-x-x-|
D|-----2~----------6~--4~-------2~----------6~--5b--x-x-x-x-|

GUITAR 2:
e|-------------------------|
B|-------------------------|
G|-4~--9~--3~--4~--4~--6~--|
D|-4~--9~--3~--4~--4~--6~--| x4
A|-2~--7~--1~--2~--2~--4~--|
D|-------------------------|

REPEAT CHORUS

PRE-BREAKDOWN:
Of you and, of you and me...

BOTH GUITARS (Palm muted):
e|-----------------|
B|-----------------|
G|--------9--11----|
D|--6--9--9--11----|
A|--6--9--7---9----|
D|--6--9-----------|


GUITAR 1:
e|-----------------|
B|-----------------|
G|-------9--11--6--|
D|-6--9--x---x--x--|
A|-6--9--7---9--4--|
D|-6--9------------|

GUITAR 2:
e|--------------|
B|--------------|
G|-4--9--8-11---|
D|-x--x--x--x---|
A|-2--7--6--9---|
D|--------------|

BREAKDOWN:

GUITAR 1:
e|--------------------------------------------------|
B|--------------------------------------------------|
G|-4---4------------6---6---9-8-----3-4------8--11--|
D|-4-4-4-6-4-4/6\4--6-2-6-2-x-x--2--x-x-4-2--x---x--| 2nd time skip 6x8.
A|-2-4-2-6-4-4/6\4--4-2-4-2-7-6--2--1-2-4-2--6---9--|
D|---4---6-4-4/6\4----2---2------2------4-2---------|

GUITAR 2:
e|---------------------------------|
B|---------------------------------|
G|-16--15------------------11--6---|
D|--x---x-------------------x--x---|
A|-14--13-------------------9--4---|
D|---------------------------------|

Doomed to detonate on delivery

GUITAR 1:
e|---------------|
B|---------------|
G|----9-----4~---|
D|----x--2--4~---|
A|----7--2--2~---|
D|-------2-------|

GUITAR 2:
e|-----------|
B|-----------|
G|--9--8--4~-|
D|--x--x--x~-|
A|--7--6--2~-|
D|-----------|

REAPEAT CHORUS UNTIL THE END.
Related for Relapsing tab