Song name
# A B C D E F G H I J K L M N O P Q R S T U V W X Y Z

Boys Night Out - Hold On Tightly Let Go Lightly tab

Drop D

Intro/Verse: (note: you might want to slide between notes)
e|------------------------------------------------------------------------|
B|------------------------------------------------------------------------|
G|-7-6----2---2/7-6-----2---2/7-6---2-1----------------------7-7-7--6-6-6-|
D|----4-2---2---0---4-2---2---0---4-----2-4-2---0--------x2--0-0-0--0-0-0-|
A|--------------------------------------------0--------------0-0-0--0-0-0-|
D|-----------------------------------------------------------0-0-0--0-0-0-|

Chorus
[Guitar 1]
e|----------------------------------------------------------------------|
B|----------------------------------------------------------------------|
G|----------------------------------------------------------------------|
D|-0-0-0-0-0-0-0-0---9-9-9-9-9-9-9-9-9-9--1-1-1-1-1/2-2-2-2-2-2-2-2-----|
A|-0-0-0-0-0-0-0-0---9-9-9-9-9-9-9-9-9-9--1-1-1-1-1/2-2-2-2-2-2-2-2-----|
D|-0-0-0-0-0-0-0-0---9-9-9-9-9-9-9-9-9-9--1-1-1-1-1/2-2-2-2-2-2-2-2-----|

[Guitar 2]
e|-----5-----5--------------9-----9--------------------------------------|
B|---3-----3-----3--------7-----7-----7----------10-------10-------------|
G|-6-----6-----6--------6----6------6----------9--------9-------9--------|
D|------------------x4------------------x2--11-------11------11----x2----|
A|-----------------------------------------------------------------------|
D|-----------------------------------------------------------------------|

[Guitar 1]
e|-----------------------------------------------------------------|
B|-----------------------------------------------------------------|
G|-----------------------------------------------------------------|
D|-4-4-4-4-4--0-0-0--9-9-9-9---0-0-7/9-9---9-9-7-9-9-7-9-7-9--2-x2-|
A|-4-4-4-4-4--0-0-0--9-9-9-9---0-0-7/9-9---7-7-5-7-7-5-7-5-7--2----|
D|-4-4-4-4-4--0-0-0--9-9-9-9---0-0-7/9-9---0-0-0-0-0-0-0-0-0--2----|

Outro:
e|---------------------------------------------------------|
B|---------------------------------------------------------|
G|-7-6----2---2/7-6-----2---2/7-6---2-1--------------------|
D|-0--4-2---2---0---4-2---2---0---4-----2-4-2---0-----x2---|
A|--------------------------------------------0------------|
D|---------------------------------------------------------|
Tap to rate this tab
# A B C D E F G H I J K L M N O P Q R S T U V W X Y Z