Guitaretab - guitar tabs
Song name
# A B C D E F G H I J K L M N O P Q R S T U V W X Y Z

Boys Night Out - I Got Punched In The Nose For Sticking My Face Into Other Peoples Business tab

I Got Punched in the Nose for Sticking My Face into Other People's Business

...-Palm Mute
////-pick slide down the strings
\\-pick slide up the strings
~-vibrato

Standard Tuning

Intro

e------------------------------------------------|
B------------------------------------------------|
G------------------------------------------------|
D------------------------------------------------|
A------------------------------------------------|
E-\\\\\\\\-////////////////----------------------|


First Verse

e---------------------------------------------------------------------------|
B---------------------------------------------------------------------------|
G---------------------------------------------------------------------------|
D-7777777777777777--44-4-44-444--1212-1212121212121212--22-2-2-2--44444444--|
A-7777777777777777--44-4-44-444--1212-1212121212121212--22-2-2-2--44444444--|
E-5555555555555555--22-2-22-222--1010-1010101010101010--00-0-0-0--22222222--|

e---------------------------------------------------------------------------|
B---------------------------------------------------------------------------|
G---------------------------------------------------------------------------|
D-7777777777777777--44-4-44-444--1212-1212121212121212--22-2-2-2--44444444--|
A-7777777777777777--44-4-44-444--1212-1212121212121212--22-2-2-2--44444444--|
E-5555555555555555--22-2-22-222--1010-1010101010101010--00-0-0-0--22222222--|

e----------------------------------------------------------------------------|
B----------------------------------------------------------------------------|
G----------------------------------------------------------------------------|
D-7777777777777777--44-4-44-444--1212-1212121212121212-----------------------|
A-7777777777777777--44-4-44-444--1212-1212121212121212-----------------------|
E-5555555555555555--22-2-22-222--1010-1010101010101010-----------------------|


Chorus

e----------------------------------------------------------------------------|
B----------------------------------------------------------------------------|
G----------------------------------------------------------------------------|
D-222222-2~--444444-444--121212121212-12--121212121212-12--------------------|
A-222222-2~--444444-444--121212121212-12--121212121212-12--------------------|
E-000000-0~--222222-222--101010101010-10--101010101010-10--------------------|
  ......     ......      ............     ............

e------------------------------------------------------9---------------------|
B-------------------------------------------------10-9---10-9----------------|
G----------------------------------------------------------------------------|
D-222222-2~--444444-444--12-12-12-12-12-12-12-12-----------------------------|
A-222222-2~--444444-444--12-12-12-12-12-12-12-12-----------------------------|
E-000000-0~--222222-222--10-10-10-10-10-10-10-10-----------------------------|
  ......     ......      .. .. .. .. .. .. ..


Second Verse

e-----------------------------------------------------------------------------|
B-----------------------------------------------------------------------------|
G-----------------------------------------------------------------------------|
D-44-444-44-44444---22-22-22-22-22-22-22-22--1212-1212121212121212------------|
A-44-444-44-44444---22-22-22-22-22-22-22-22--1212-1212121212121212------------|
E-22-222-22-22222---00-00-00-00-00-00-00-00--1010-1010101010101010------------|
                    ..    ..    ..    ..

e-----------------------------------------------------------------------------|
B-----------------------------------------------------------------------------|
G-----------------------------------------------------------------------------|
D-44-77-99-12121212--44-444-44-44444---22-22-22-22-22-22-22-22----------------|
A-44-77-99-12121212--44-444-44-44444---22-22-22-22-22-22-22-22----------------|
E-22-55-77-10101010--22-222-22-22222---00-00-00-00-00-00-00-00----------------|
                                       ..    ..    ..    ..

e-----------------------------------------------------------------------------|
B-----------------------------------------------------------------------------|
G-----------------------------------------------------------------------------|
D-1212-1212121212121212--44-77-99-12121212-44-77-99-12121212-12------77-------|
A-1212-1212121212121212--44-77-99-12121212-44-77-99-12121212-12(x32)-77-------|
E-1010-1010101010101010--22-55-77-10101010-22-55-77-10101010-10------55-------|

First Bridge

Bass plays here, no guitar except feedback

Intro

e-----------------------------------------------------------------------------|
B-----------------------------------------------------------------------------|
G-----------------------------------------------------------------------------|
D-----------22-222-44444444---------------------------------------------------|
A-----------22-222-44444444---------------------------------------------------|
E-////////--00-000-22222222---------------------------------------------------|


(Repeated) First Verse

e-----------------------------------------------------------------------------|
B-----------------------------------------------------------------------------|
G-----------------------------------------------------------------------------|
D-7777777777777777--44-4-44-444--1212-1212121212121212--22-2-2-2--44444444----|
A-7777777777777777--44-4-44-444--1212-1212121212121212--22-2-2-2--44444444----|
E-5555555555555555--22-2-22-222--1010-1010101010101010--00-0-0-0--22222222----|

e-----------------------------------------------------------------------------|
B-----------------------------------------------------------------------------|
G-----------------------------------------------------------------------------|
D-7777777777777777--44-4-44-444--1212-1212121212121212------------------------|
A-7777777777777777--44-4-44-444--1212-1212121212121212------------------------|
E-5555555555555555--22-2-22-222--1010-1212121212121212------------------------|


Second Bridge
[ Tab from: http://www.guitaretab.com/b/boys-night-out/72870.html ]
e-------------------------------------------------------------------------------|
B-------------------------------------------------------------------------------|
G-------------------------------------------------------------------------------|
D-222222-2~----444444-444--121212121212-12--121212121212-12---------------------|
A-222222-2~----444444-444--121212121212-12--121212121212-12---------------------|
E-000000-0~----222222-222--101010101010-10--101010101010-10---------------------|
  ......       ......      ............     ............

e--------------------------------------9-----------------------------------------|
B-----------------------------------------------------10--------------9----------|
G--------------------------------------------------------------------------------|
D-222222-2~----444444-444--121212121212---121212121212----121212121212-----------|
A-222222-2~----444444-444--121212121212---121212121212----121212121212-----------|
E-000000-0~----222222-222--101010101010---101010101010----101010101010-----------|
  ......       ......      ............   ............    ............

e--------------9--------------9---------------------------------------------9--------------9-|
B--------------------------------------------10--------------9-------------------------------|
G--------------------------------------------------------------------------------------------|
D-121212121212---121212121212---121212121212----121212121212---121212121212---121212121212---|
A-121212121212---121212121212---121212121212----121212121212---121212121212---121212121212---|
E-101010101010---101010101010---101010101010----101010101010---101010101010---101010101010---|
  ............   ............   ............    ............   ............   ............

e-------------------------------------------------------------------------------------------------------------|
B------------10--------------9--------------9--------------999--------------9--------------999--------------9-|
G-------------------------------------------------------------------------------------------------------------|
D-1212121212----121212121212---121212121212---121212121212-----121212121212---121212121212-----121212121212---|
A-1212121212----121212121212---121212121212---121212121212-----121212121212---121212121212-----121212121212---|
E-1010101010----101010101010---101010101010---101010101010-----101010101010---101010101010-----101010101010---|
  ..........    ............   ............   ............     ............   ............    ............

e-
B--------------999--------------9--------------9-|
G------------------------------------------------|
D-121212121212-----121212121212---121212121212---|
A-121212121212-----121212121212---121212121212---|
E-101010101010-----101010101010---101010101010---|
  ............     ............   ............


Third Bridge (or Second Bridge Continued

e------------------------------------------------------------------------|
B------------------------------------------------------------------------|
G------------------------------------------------------------------------|
D-444444444444----777777777777----222222222222----555555555555---5-5-5---|
A-444444444444----777777777777----222222222222----555555555555---5-5-5---|
E-222222222222----555555555555----000000000000----333333333333---3-3-3---|

e------------------------------------------------------------------------|
B------------------------------------------------------------------------|
G------------------------------------------------------------------------|
D-444444444444----777777777777----222222222222----555555555555---5-5-5---|
A-444444444444----777777777777----222222222222----555555555555---5-5-5---|
E-222222222222----555555555555----000000000000----333333333333---3-3-3---|

e------------------------------------------------------------------------|
B------------------------------------------------------------------------|
G------------------------------------------------------------------------|
D-444444444444----777777777777----222222222222----555555555555---5-5-5---|
A-444444444444----777777777777----222222222222----555555555555---5-5-5---|
E-222222222222----555555555555----000000000000----333333333333---3-3-3---|

e------------------------------------------------------------------------|
B------------------------------------------------------------------------|
G------------------------------------------------------------------------|
D-444444444444----777777777777----222222222222----555555555555---5-5-5---|
A-444444444444----777777777777----222222222222----555555555555---5-5-5---|
E-222222222222----555555555555----000000000000----333333333333---3-3-3---|


Outro

e-4/5-5555-52-2222-2/9-9999-95-5555-4/5-5555-52-2222-2/3-3333-3-3-3--------|
B--------------------------------------------------------------------------|
G--------------------------------------------------------------------------|
D--------------------------------------------------------------------------|
A--------------------------------------------------------------------------|
E--------------------------------------------------------------------------|

e-4/5-5555-52-2222-2/9-9999-95-5555-4/5-5555-52-2222-2/3-3333-3-3-3--------|
B--------------------------------------------------------------------------|
G--------------------------------------------------------------------------|
D--------------------------------------------------------------------------|
A--------------------------------------------------------------------------|
E--------------------------------------------------------------------------|

e-4/5-5555-52-2222-2/9-9999-95-5555-4/5-5555-52-2222-2/3-3333-3-3-3--------|
B--------------------------------------------------------------------------|
G--------------------------------------------------------------------------|
D--------------------------------------------------------------------------|
A--------------------------------------------------------------------------|
E--------------------------------------------------------------------------|

e-4/5-5555-52-2222-2/9-9999-95-5555-4/5-5555-52-2222-2/3-3333-3-3-3--------|
B--------------------------------------------------------------------------|
G--------------------------------------------------------------------------|
D--------------------------------------------------------------------------|
A--------------------------------------------------------------------------|
E--------------------------------------------------------------------------|
Related for I Got Punched In The Nose For Sticking My Face Into Other Peoples Business tab