Song name
# A B C D E F G H I J K L M N O P Q R S T U V W X Y Z

Boys Night Out - Yeah Noi Know tab

Help us improve GuitareTab! Take a short survey!
----------------------------------------------------------------------------
		    Yeah, no...I know - Boys Night Out
----------------------------------------------------------------------------
Tabbed by:Derik Dunson
Email:takenoverbyzombies@hotmail.com



e|--------------------------------------|
B|---------2----------------------------|
G|----1--------1------------1--------1--|
D|----------3h4-3-4-3-------------------|
A|1-1-----------------4----------0-2----|
E|----------------------2-2-------------|

  Easy stuff, for a fixed hand position.
Related for Yeah Noi Know tab