Song name
# A B C D E F G H I J K L M N O P Q R S T U V W X Y Z

Boys Night Out - Purging tab

-------------------------------------------------------------------------------
			    Purging - Boys Night Out
-------------------------------------------------------------------------------
Tabbed by:  Jacob (a 13 year old)
Email: texas_is_south111@yahoo.com

Tuning:drop d

i did my best this song is hard

e|-------------------------------------19----------19----------19---------19-|
B|---------------------------------------------------------------------------|
G|-4----------------------------xxxxx------xxxxx-------xxxxx------xxxxx------|
D|-2-x12-------7--------7-------xxxxx------xxxxx-------xxxxx------xxxxx------|
A|-4-----------4-x11----3-x11---xxxxx------xxxxx-------xxxxx------xxxxx------|
D|-------------4--------3-------xxxxx------xxxxx-------xxxxx------xxxxx------|

e|---------------------------------------------------------------------------------|
B|---------------------------------------------------------------------------------|
G|---------------------------------------------------------------------------------|
D|---------------------------------------------------------------------------------|
A|-------4~--------4b--------------------------------------------------------------|
D|---------2--2-3-4----------------------------------------------------------------|

e|-------------------------------------19----------19----------19---------19-|
B|---------------------------------------------------------------------------|
G|------------------------------xxxxx------xxxxx-------xxxxx------xxxxx------|
D|-------------7--------7-------xxxxx------xxxxx-------xxxxx------xxxxx------|
A|-------------4-x11----3-x11---xxxxx------xxxxx-------xxxxx------xxxxx------|
D|-------------4--------3-------xxxxx------xxxxx-------xxxxx------xxxxx------|

i might of had the strumming wrong

e|---------------------------------------------------------------------------------------|
B|---------------------------------------------------------------------------------------|
G|---------------------------------------------------------------------------------------|
D|------4--4---------7--7----------------------------------------------------------------|
A|------4--4-x13-----7--7-x13------------------------------------------------------------|
D|------4--4---------7--7----------------------------------------------------------------|
           .            .
figure out the strumming for yourself
e|---------------------------------------------------------------------------------|
B|---------------------------------------------------------------------------------|
G|---------------------------------------------------------------------------------|
D|--4----7---3---------------------------------------------------------------------|
A|--4----7---3---------------------------------------------------------------------|
D|--4----7---3---------------------------------------------------------------------|


i dont know the bridge (the slow part)

then it gets fast again
e|-------------------------------------19----------19----------19---------19-|
B|---------------------------------------------------------------------------|
G|------------------------------xxxxx------xxxxx-------xxxxx------xxxxx------|
D|-------------7--------7-------xxxxx------xxxxx-------xxxxx------xxxxx------|
A|-------------4-x11----3-x11---xxxxx------xxxxx-------xxxxx------xxxxx------|
D|-------------4--------3-------xxxxx------xxxxx-------xxxxx------xxxxx------|


the screaming part
e|------------------------------------|
B|------------------------------------|
G|------------------------------------|
D|------------------------------------|
A|------------------------------------|
D|--11x14-\slide-down--4x12-3x12--2b--|

SORRY THATS ALL I KNOW

| /  slide up
| \  slide down
| h  hammer-on
| p  pull-off
| ~  vibrato
| +  harmonic
| x  Mute note
===============================================================================
Tap to rate this tab
# A B C D E F G H I J K L M N O P Q R S T U V W X Y Z