Song name
# A B C D E F G H I J K L M N O P Q R S T U V W X Y Z

Boys - Do The Contract chords

Highlighted       Show chord diagrams
The Boys - Do the contract

Intro & Verse Riff:

e:7-------7-7-----|9--9----9--9----|
b:9-------7-7-----|9--9----9--9----|
g:9-------8-8-----|10-10---10-10---|
d:9-------9-9-----|11-11---11-11---|
a:7-------9-9-----|11-11---11-11---|
e:--------7-7-----|9--9----9--9----|

In the Intro play the higher triad of the chords, later it´s the whole barré or a 
powerchord, it doesn´t really matter

Intro: E B C# C# 4x (play the higher part of the chord)

E    B    C#   C#
Everybody's doing it
It's the latest dance
No fancy footwork
Just shaking hands
Put your trust in me boy
I'll see you right
Gonna make ya big star
Put you up in lights yeah!

Chorus:
E               F#              B/C#   B/C#
Do the contract do the contract hustle
Everybody do the contract hustle
E                F#
Put your working life
A             B
On the dotted line

Intro

E     B        C#   C#
If you wanna do it
Gotta do it right
Screw the other offers
Take a look at mine - yeah!

Chorus

Outro
E     B         C#     G#     B    G#      C#
Do the contract hustle yeah - it'll make me rich
Do the contract hustle yeah - we'll make it stick
Do the contract hustle yeah - take a look at mine
Do the contract hustle yeah - on the dotted line

End on Intro Riff

Chords:
E:--7-9-9-9-7 or 12-14-14-13-12-12-| (both works)
B:7-9-9-8-7-7----------------------|
C#:9-11-11-10-9-9------------------|
A:5-7-7-6-5-5----------------------|
G#:4-6-6-5-4-4---------------------|
Tap to rate this tab
 
# A B C D E F G H I J K L M N O P Q R S T U V W X Y Z