Song name
# A B C D E F G H I J K L M N O P Q R S T U V W X Y Z

Boyskout - Back To Bed tab

Artist: Boyskout
Title: Back To Bed
Album: 2006 Bomp/Alive Sampler
Label: Bomp!/Alive Records

The band's website: http://www.boyskout.com/
The band's myspace: http://www.myspace.com/boyskout

This is a very easy song to play, so have fun!

Fully tabbed by Goad.
If you have any questions or whatever, just leave a comment.

Standard Tuning
4/4 Time

. = palm mute
v = strum down
^ = strum up
\ = slide down to lower note


VERSE RIFF
e|----------------|----------------|
B|----------------|----------------|
G|----------------|----------------|
D|-6-6-6-6-6--6-6-|----------------|
A|----------------|-6--6-8--8-6----| x15
E|----------------|----------------|


CHORUS RIFF "Baby, come back to bed..."
e|----------------|----------------|
B|----------------|----------------|
G|-6-6-6---6---6--|-8--8-8-8-8-8-8-|
D|-6-6-6---6---6--|-8--8-8-8-8-8-8-|
A|-4-4-4---4---4--|-6--6-6-6-6-6-6-| x3
E|----------------|----------------|

e|----------------|----------------|
B|----------------|----------------|
G|-6-6-6---6---6--|-8~~------------|
D|-6-6-6---6---6--|-8~~let ring----|
A|-4-4-4---4---4--|-6~~------------|
E|----------------|----------------|


** Repeat VERSE RIFF x12


CHORUS RIFF-variation 1
e|----------------|----------------|
B|----------------|----------------|
G|-6-6-6---6---6--|-8--8-8-8-8-8-8-|
D|-6-6-6---6---6--|-8--8-8-8-8-8-8-|
A|-4-4-4---4---4--|-6--6-6-6-6-6-6-| x3
E|----------------|----------------|

e|----------------|----------------|
B|----------------|----------------|
G|-6-6-6---6---6--|-8--8-8---8-8---|
D|-6-6-6---6---6--|-8--8-8---8-8---|
A|-4-4-4---4---4--|-6--6-6---6-6---|
E|----------------|----------------|


BRIDGE
e|----------------|----------------|-----------------|--------------------|
B|----------------|----------------|-----------------|--------------------|
G|-6---6---6-6----|----------------|-8---8---8-8-----|-8---8---8~---------|
D|-6---6---6-6----|-6--6-6---6-6---|-8---8---8-8-----|-8---8---8~let ring-|
A|-4---4---4-4----|-6--6-6---6-6---|-6---6---6-6-----|-6---6---6~---------|
E|----------------|-4--4-4---4-4---|-----------------|--------------------|
   v   v   v ^                       v   v   v ^

e|----------------|----------------|-----------------|-------------------|
B|----------------|----------------|-----------------|-------------------|
G|----------------|----------------|-----------------|-------------------|
D|-4---4---4-4----|-4---4---4-4----|-6-6-----6-6-----|-6-----------------|
A|-4---4---4-4----|-4---4---4-4----|-6-6-----6-6-----|-6--6\\\\\\\\\\\\\-|
E|-2---2---2-2----|-2---2---2-2----|-4-4-4-4-4-4-4-4-|-4-----------------|
   .   .   .        .   .   .            . .     . .
   v   v   v ^      v   v   v ^      v ^     v ^       v


** Repeat CHORUS RIFF x2

THE END!
Tap to rate this tab
# A B C D E F G H I J K L M N O P Q R S T U V W X Y Z