Song name
# A B C D E F G H I J K L M N O P Q R S T U V W X Y Z

Boyz Ii Men - If I Ever Fall In Love Again tab

-------------------------------------------------------------------------------
		IF I EVER FALL IN LOVE AGAIN - Boyz II Men / Shai
-------------------------------------------------------------------------------
Tabbed by: sarahlouisemcm
Email: sarahtease@live.co.uk

Tuning: Standard tuning.

Probably not in the right key or anything, just played what I thought it
sounded like and what suited my voice.
You can put the capo wherever you feel is best...
These are the basics, but some parts change in the last chorus and intro,
but you can adjust that to how you feel or can work it out from listening
to or playing with the song. This is how I play it on my youtube video,
some people asked for the tab so here it is...

Capo 2.

Intro:
  Am                        G                Em/G
e|---------------------------------------------------------------------------|
B|--------1------------------------3--------------3--------------------------|
G|-----2-----2-----2-----------0------0--------0----0------------------------|
D|--------------2------------------------------------------------------------|
A|--0------------------0-----------------------------------------------------|
E|--------------------------3---------------0--------------------------------|

^ X5

  Am                       G  G/Em
e|---------------------------------------------------------------------------|
B|-------1------------------3--3---------------------------------------------|
G|----2----2------2---------0--0---------------------------------------------|
D|-------------2------------0--2---------------------------------------------|
A|--0-----------------0------------------------------------------------------|
E|--------------------------3--0---------------------------------------------|

Verse 1:
  Am                        G               Em/G
e|---------------------------------------------------------------------------|
B|--------1------------------------3--------------3--------------------------|
G|-----2-----2-----2-----------0------0--------0----0------------------------| 
D|--------------2------------------------------------------------------------|
A|--0------------------0-----------------------------------------------------|
E|--------------------------3---------------0--------------------------------|

^ X5

  Am                        G             Em/G
e|-----------0h3p0-----------------------------------------------------------|
B|-------------------3-------------3--------------3--------------------------|
G|-----2----------------2--------0----0--------0-----0-----------------------|
D|---------------------------------------------------------------------------|
A|--0------------------------------------------------------------------------|
E|---------------------------3-------------0---------------------------------|

  Am                        G               Em/G
e|----------------------------------------------------------------------------|
B|---------1------------------------3--------------3-------------------------|
G|-----2-----2-----2-----------0------0--------0----0------------------------|  
D|---------------2-----------------------------------------------------------|
A|--0------------------0-----------------------------------------------------|
E|--------------------------3---------------0--------------------------------|

^ X2

  Am
e|-----------------------------x---------------------------------------------|
B|--------1---------------1----x---------------------------------------------|
G|-----2----2-----2-------2----x---------------------------------------------|
D|--------------2----2----2----x---------------------------------------------|
A|--0---------------------0----x---------------------------------------------|
E|-----------------------------x---------------------------------------------|

CHORUS:
    F                  G                  Am
e|--1--1--1--1--1--1---3--3--3--3--3--3---0--0--0--0--0--0---0--0--3--0--0--0---|
B|--1--1--1--1--1--1---3--3--3--3--3--3---1--1--1--1--1--1---3--1--1--1--1--1---|
G|--2--2--2--2--2--2---4--4--4--4--4--4---2--2--2--2--2--2---2--2--2--2--2--2---| 
D|--3--3--3--3--3--3---5--5--5--5--5--5---2--2--2--2--2--2---2--2--2--2--2--2---|
A|--3--3--3--3--3--3---5--5--5--5--5--5---0--0--0--0--0--0---0--0--0--0--0--0---|
E|--1--1--1--1--1--1---3--3--3--3--3--3---0--0--0--0--0--0---0--0--0--0--0--0---|

^ X3

    F                   G
e|--1--1--1--1--1--1----3----------------------------------------------------|
B|--1--1--1--1--2--2----3----------------------------------------------------|
G|--2--2--2--2--2--2----4----------------------------------------------------|
D|--3--3--3--3--3--3----5----------------------------------------------------|
A|--3--3--3--3--3--3----5----------------------------------------------------|
E|--1--1--1--1--1--1----3----------------------------------------------------|

Repeat Intro.

Verse 2:
  Am                        G             Em/G
e|---------------------------------------------------------------------------|
B|--------1------------------------3--------------3--------------------------|
G|-----2-----2-----2-----------0------0--------0----0------------------------| 
D|---------------2-----------------------------------------------------------|
A|--0------------------0-----------------------------------------------------|
E|--------------------------3--------------0---------------------------------|

^ X7

  Am
e|---------------------------------------------------------------------------|
B|--------1------------------------------------------------------------------|
G|-----2----2----2-------2---------------------------------------------------|
D|-------------2---------2---------------------------------------------------|
A|--0----------------0---0---------------------------------------------------|
E|---------------------------------------------------------------------------|

Repeat CHORUS.
Repeat Intro.

:)

| /  slide up
| \  slide down
| h  hammer-on
| p  pull-off
| ~  vibrato
| +  harmonic
| x  Mute note
===============================================================================

http://uk.youtube.com/watch?v=vXwAcCidYoY
Tap to rate this tab
# A B C D E F G H I J K L M N O P Q R S T U V W X Y Z