Song name
# A B C D E F G H I J K L M N O P Q R S T U V W X Y Z

Boyz Ii Men - Water Runs Dry tab

Boyz II Men - Water Runs Dry
(as performed by Boyce Avenue)

Tabbed by: Tyler Sherrod

Could have some errors in it, but it should be mostly correct. Let me know if you
have some corrections :)

Video of them playing/singing it: http://www.youtube.com/watch?v=dpUBL6S7Hrw

Tuning: Standard (E A D G B E)

^ = hammer on
x = slap
/ = slide

Intro:
-------------------------------------------------------------------|
------1---------------------------------1---------------1----------|
------0------0--2/4-5--4^5-4------------0-------0--0^2--2--0^2--0--|
----2---0^2--0------2------0----------2----0^2--0-------2-------0--|
--3----------2------0-----------0-2-3-----------2-------0----------|
---------------------------3--3---------------------------------3--|

Verse 1 & 2:
--------------------------------------------------------------|
--1-------3------1------0---------1--------3------1---0-----0-|
----2--2----0-------2------0---0----2---2----0----2-------0---|
------0-------0-------2------0--------0--------0--2-----0-----|
--3-------2------0----------------3--------2------0-----------|
------------------------3-----------------------------3-------|

---------------------------------------------------------|
--1-------3------1------0---------1--------3------1---0--|
----2--2----0-------2------0---0----2---2----0----2---0--|
------0-------0-------2------0--------0--------0--2------|
--3-------2------0----------------3--------2------0------|
------------------------3-----------------------------3--|

Pre-Chorus 1, 2 & 3:
------------------------------x-------x---0---|
--------------------------1---x---3---x---1---|
--2-------2---1-----------2---x---4---x---2---|
----3---3-------2---0^2---2---x---5---x-------|
--0---0-------2---2-------0---x---0---x---0---|
------------------------------x-------x-------|

Chorus 1, 2 & 3:
--0-------------1-------1--------0-------------1-------1--------|
----1----3--------1-------1--------1----3--------1-------1------|
------2----4--------2-------2--------2----4--------2-------2----|
-------------5--0-----0-------0-------------5--0-----0-------0--|
--0------0-----------------------0------0-----------------------|
----------------------------------------------------------------|

--0--------------0---x---2------------0---|
----1----3-------1---x---3----1---3---1---|
------2----4-----2---x---2----2---4---2---|
-------------5-------x---0----3---5---0---|
--0------0-------0---x--------0---0-------|
---------------------x--------------------|

Post-chorus 1 & 2:
-------------------------------------------------------------|
--1-------3------1-------0---------1--------3------1------0--|
----2--2----0-------2-------0---0----2---2----0------2----0--|
------0-------0-------2-------0--------0--------0------2-----|
--3-------2------0-----------------3--------2------0---------|
-------------------------3--------------------------------3--|

Outro:
-------------------------------------------------------------------|
--1-------3------1-------0---------1--------3------1------0--------|
----2--2----0-------2-------0---0----2---2----0------2------0---0--|
------0-------0-------2-------0--------0--------0------2------0----|
--3-------2------0-----------------3--------2------0---------------|
-------------------------3--------------------------------3--------|

----------------------------------------------------------------------|
--1-------3------1-------0---------1--------3------1------0--------1--|
----2--2----0-------2-------0---0----2---2----0------2------0---0--2--|
------0-------0-------2-------0--------0--------0------2------0----0--|
--3-------2------0-----------------3--------2------0---------------3--|
-------------------------3--------------------------------3-----------|
Tap to rate this tab
 
# A B C D E F G H I J K L M N O P Q R S T U V W X Y Z