Song name
# A B C D E F G H I J K L M N O P Q R S T U V W X Y Z

Boyzone - Words tab

Boyzone - Words

Hey! This is my first tab. Hope you like it.

INTRO:

E--------------------------------------------------|
B--------------------------------------------------|
G-3---3-5-4-2---4---4-5-4-2---2-----2--------------|
D-------------5-------------5-----2----------------|
A--------------------------------------------------|
E--------------------------------------------------|

E--------------------------------------------------|
B--------------------------------------------------|
G-2-2---2-4-2------2---2-4-2-----------------------|
D-------------5-4------------5-4-2-----------------|
A----------------------------------5-5-------------|
E--------------------------------------------------|

E--------------------------------------------------|
B-3-3---3-4-3-------3-3-3-4-3----------------------|
G-------------5-3-------------5-3---5-2-5----------|
D--------------------------------------------------|
A--------------------------------------------------|
E--------------------------------------------------|

E--------------------------------------------------|
B--------------------------------------------------|
G-5-4---4-5-4-2---4---4-5-4-2---2------------------|
D---------------5-------------5-----5-4-2----------|
A-----------------------------------------5--------|
E--------------------------------------------------|

Tap to rate this tab
 
# A B C D E F G H I J K L M N O P Q R S T U V W X Y Z