Song name
# A B C D E F G H I J K L M N O P Q R S T U V W X Y Z

Boyzone - Everyday I Love You tab

Everyday I love you - Boyzone
Tabbed by:Ryan B. Albert
Email:ryan_albertstein@yahoo.com

Tuning:EADGBe
  
 Solo:
e|--------12-14---------------------12---------------------------------------|
B|-----15-------14-15---------14-15----12-14------------12-14-15----14-------|
G|--14----------------14-12------------------12---11-11----------11----11----|
D|---------------------------------------------------------------------------|
A|---------------------------------------------------------------------------|
E|---------------------------------------------------------------------------|

e|-------------------------------------------|
B|-------------------------------------------|
G|-----12-11-9---------------------9-9-------|
D|--12---------12--11-11--12-11/12------12---|
A|-------------------------------------------|
E|-------------------------------------------|
Tap to rate this tab
 
# A B C D E F G H I J K L M N O P Q R S T U V W X Y Z