Song name
# A B C D E F G H I J K L M N O P Q R S T U V W X Y Z

Boz Scaggs - Loan Me A Dime tab

Artist: Boz Scaggs
Song: Loan Me A Dime
Album: Greatest Hits Live
By s_greenway@hotmil.co.uk

Tab Key:
h - hammer on 
p - pull off 
b - bend string up
br - bend + release
/ - slide up or: ///// - rapid picking 
\ - slide down
~ - vibrato 

This is the version from his 'Greatest Hits' album which goes on for 15:50. 

Second guitar solo (5:36 - 6:55)
e|----3---6-3-1h3~-----9b10--8b10-3h6-3-1----------------------------------|
b|--3---3-----------8-------8b10---------1b2-3~--5b7-7br5-3--5br7b7~-------|
g|-------------------------------------------------------------------------|
d|-------------------------------------------------------------------------|
a|-------------------------------------------------------------------------|
e|-------------------------------------------------------------------------|

e|-------------------------------------------------3-3-6-6-6-8-8-8-8-8/10--|
b|---------------------------------------------3h6-------------------------|
g|-5br7-3-5br7b7~--5br7-3-5br7b7~/12---5p3p0-------------------------------|
d|-------------------------------------------5~----------------------------|
a|-------------------------------------------------------------------------|
e|-------------------------------------------------------------------------|



e|-10-10-10-10///////-10\8--10\8--10\8--10\8--10\8--10\8--10\8-8-8-8-8-10--|
b|-------------------------------------------------------------------------|
g|-------------------------------------------------------------------------|
d|-------------------------------------------------------------------------|
a|-------------------------------------------------------------------------|
e|-------------------------------------------------------------------------|



e|----------------------9b10-----------------------------------------------|
b|-8-8-8-11--11p10p8--8------11b13--11p10p8----8----8--11b13--11-8----8----|
g|------------------------------------------10---10---------------10-------|
d|-------------------------------------------------------------------------|
a|-------------------------------------------------------------------------|
e|-------------------------------------------------------------------------|



e|----------------6-8-9b10-9b10-----6-8-9br10-9b10----6-8-9b10-9b10----6-8-|
b|--------8\5---8-----------------8-----------------8----------------8-----|
g|-10b12--7\4--------------------------------------------------------------|
d|-------------------------------------------------------------------------|
a|-------------------------------------------------------------------------|
e|-------------------------------------------------------------------------|



e|-8b10-----------------12b13-12b13---6--9br10--9b10---20b22--18b19-18~----|
b|------8-8~-8\5----8-8-------------8--------------------------------------|
g|-----------7\4-----------------------------------------------------------|
d|-------------------------------------------------------------------------|
a|-------------------------------------------------------------------------|
e|-------------------------------------------------------------------------|


e|-18p17p15--18p17p15--15----15-----20\12-----13b14-15------13b14-15-------|
b|------------------------18----20~-19\12--15------------15----------------|
g|-------------------------------------------------------------------------|
d|-------------------------------------------------------------------------|
a|-------------------------------------------------------------------------|
e|-------------------------------------------------------------------------|

e|----13b14-15-------13b14-15------13b14-15-18---20br22-20--20b22-20b22----|
b|-15------------15-------------15-----------------------------------------|
g|-------------------------------------------------------------------------|
d|-------------------------------------------------------------------------|
a|-------------------------------------------------------------------------|
e|-------------------------------------------------------------------------|

e|-------------------------------------------------------------------------|
b|---------------10-8~---8\5-----------------------------------------------|
g|-7-7-10-7----7---------7\4-----------------------------------------------|
d|-------------------------------------------------------------------------|
a|-------------------------------------------------------------------------|
e|-------------------------------------------------------------------------|
Tap to rate this tab
 
# A B C D E F G H I J K L M N O P Q R S T U V W X Y Z