Bracewar - Spirals tab

(VERSE 1)
e |-----------------------------------------------------------|
B |-----------------------------------------------------------|
G |-----------------------------------------------------------|
D |-9-8-7-x-x-x-x-5-6-7-x-x-x-x-------------------------------| x4
A |-7-6-5-x-x-x-x-3-4-5-x-x-x-x-------------------------------|
E |-----------------------------------------------------------|

(VERSE 2)
e |-----------------------------------------------------------|
B |-----------------------------------------------------------|
G |-----------------------------------------------------------|
D |-9-8-7-x-x-x-x-9-8-7-x-x-x-x-9-8-7-x-x-x-x-----------------|x2
A |-7-6-5-x-x-x-x-7-6-5-x-x-x-x-7-6-5-x-x-x-x-7-7-7-7-8-8-8-8-|
E |-------------------------------------------5-5-5-5-6-6-6-6-|
                                
Tap to rate this tab
 
# A B C D E F G H I J K L M N O P Q R S T U V W X Y Z