Song name
# A B C D E F G H I J K L M N O P Q R S T U V W X Y Z

Bracewar - Unresolved Issues tab

(VERSE 1)
e |----------------------------------------|
B |----------------------------------------|
G |----------------------------------------|
D |------8\7--5\7--5\7-------8\7-----------| x4
A |-6-6--6\5--3\5--3\5--6-6--6\5--6-6--7---|
E |-4-4-----------------4-4-------4-4--5---| 
                        
(VERSE 2)
e |----------------------------------------|
B |----------------------------------------|
G |----------------------------------------|
D |----------------------------------------| x2
A |-6-6-x--9-5-x--6-6-x-9-5----------------|
E |-4-4-x--7-3-x--4-4-x-7-3----------------|

(VERSE 3)
e |----------------------------------------|
B |----------------------------------------|
G |----------------------------------------|
D |----------------------------------------| x4
A |-6--4-6-7--6-8-10-12-12-----------------|
E |-4--2-4-5--4-6--8-10-10-----------------|
                                
Tap to rate this tab
 
# A B C D E F G H I J K L M N O P Q R S T U V W X Y Z