Song name
# A B C D E F G H I J K L M N O P Q R S T U V W X Y Z

Bracewar - Intro Friends Like You tab

The intro is actually on bass but it works with the single notes
(INTRO)
e |--------------------------------------------------------------------|
B |--------------------------------------------------------------------|
G |--------------------------------------------------------------------|
D |-------------------------------------------7-x-x-x-x-7-x-x-x-x-7-6-0|
A |-------------------------------------------5-x-x-x-x-5-x-x-x-x-5-4-0|
E |-4-4-4-4-4-4-8-7-7-7-7-7-7-7-4-4-4-4-4-4-4-------------------------0|

(VERSE 1)
e |--------------------------------------------------------------------|
B |--------------------------------------------------------------------|
G |--------------------------------------------------------------------|
D |-----------------------------------------7-x-x-x-x-7-x-x-x-x-7-6----|
A |-6-6-x-x-x-x-10-9-x-x-x-x-9-6-x-x-x-x-6--5-x-x-x-x-5-x-x-x-x-5-4----|
E |-4-4-x-x-x-x-8--7-x-x-x-x-7-4-x-x-x-x-4-----------------------------|

(VERSE 2)
e |--------------------------------------------------------------------|
B |--------------------------------------------------------------------|
G |--------------------------------------------------------------------|
D |-----4-4-6-6-7-7-----4-4-7-7-6-6-----4-4-6-6-7-7---4-7-6------------|
A |-6-6-2-2-4-4-5-5-6-6-2-2-5-5-4-4-6-6-2-2-4-4-5-5-6-2-5-4------------|
E |-4-4-------------4-4-------------4-4-------------4------------------|
Tap to rate this tab
 
# A B C D E F G H I J K L M N O P Q R S T U V W X Y Z