Song name
# A B C D E F G H I J K L M N O P Q R S T U V W X Y Z

Bracket - Talk Show tab

Artist: Bracket
Song: Talk-Show
Album: Fat Music Vol.II Survival of the Fattest
Tabbed by Bill Fogarty

Nice funny song, enjoy

h -hammer on
p -pull off
b -bend
rb-release bending
v -vibrato
/ -slide up
\ -slide down
<<-pick slide
pm-palm muting
x -Left-Hand-Muting
> -Tab goes on further down

Intro:

e|-12------------------------|
B|----14-12-14---------------|
G|-------------12-13-11-13---|
D|---------------------------|
A|---------------------------|
E|---------------------------|

Verse:

e|--0-x-0-x-0-x-0-x--4-x-4-x-4-x-4-x--4-x-4-x-4-x-4-x--5-x-5-x-5-x-5--->
B|--0-x-0-x-0-x-0-x--5-x-5-x-5-x-5-x--4-x-4-x-4-x-4-x--5-x-5-x-5-x-5--->
G|--1-x-1-x-1-x-1-x--6-x-6-x-6-x-6-x--5-x-5-x-5-x-5-x--6-x-6-x-6-x-6--->
D|--2-x-2-x-2-x-2-x--6-x-6-x-6-x-6-x--6-x-6-x-6-x-6-x--7-x-7-x-7-x-7--->
A|--2-x-2-x-2-x-2-x--4-x-4-x-4-x-4-x--6-x-6-x-6-x-6-x--7-x-7-x-7-x-7--->
E|--0-x-0-x-0-x-0-x--x-x-x-x-x-x-x-x--4-x-4-x-4-x-4-x--5-x-5-x-5-x-5--->


e|--0-x-0-x--3-x-3-x--4-x-4-x--2-x-2-x--5-x-5-x--2-x-2-x--0-x-0-x-0-x-0-x---|
B|--0-x-0-x--5-x-5-x--5-x-5-x--2-x-2-x--5-x-5-x--4-x-4-x--0-x-0-x-0-x-0-x---|
G|--1-x-1-x--5-x-5-x--6-x-6-x--3-x-3-x--6-x-6-x--4-x-4-x--1-x-1-x-1-x-1-x---| play
D|--2-x-2-x--5-x-5-x--6-x-6-x--4-x-4-x--7-x-7-x--4-x-4-x--2-x-2-x-2-x-2-x---| 3x (whole
A|--2-x-2-x--3-x-3-x--4-x-4-x--4-x-4-x--7-x-7-x--2-x-2-x--2-x-2-x-2-x-2-x---| thing)
E|--0-x-0-x--x-x-x-x--x-x-x-x--2-x-2-x--5-x-5-x--x-x-x-x--0-x-0-x-0-x-0-x---|

Pre-Chorus:

e|--------------------------------------------------------------------|
B|--------------------------------------------------------------------|
G|--6-6-6-6-------------------------6-6-6-6---------------------------| play
D|--6-6-6-6-6-6-6-6-7-7-7-7-2-2-2-2-6-6-6-6-6-6-6-6-4-4-4-4-2-2-2-2---| 2x
A|--4-4-4-4-6-6-6-6-7-7-7-7-2-2-2-2-4-4-4-4-6-6-6-6-4-4-4-4-2-2-2-2---|
E|----------4-4-4-4-5-5-5-5-0-0-0-0---------4-4-4-4-2-2-2-2-0-0-0-0---|

Pre-Chorus downrun:

e|------------------|
B|------------------|
G|------------------| play
D|------------------| 4x
A|--9-9-9-9-8-7-6---|
E|--7-7-7-7-6-5-4---|

Chorus:

e|------------------------------------|
B|------------------------------------|
G|----------8-8-8-8---------6-6-6-6---| play
D|--2-2-2-2-8-8-8-8-7-7-7-7-6-6-6-6---| 4x
A|--2-2-2-2-6-6-6-6-7-7-7-7-4-4-4-4---|
E|--0-0-0-0---------5-5-5-5-----------|

after 4th time add this

e|------------------------------------|
B|------------------------------------|
G|--6-6-6-6-4-4-4-4-------------------|
D|--6-6-6-6-4-4-4-4-7-7-7-7-2-2-2-2---|
A|--4-4-4-4-2-2-2-2-7-7-7-7-2-2-2-2---|
E|------------------5-5-5-5-0-0-0-0---|

Then play Pre-Chorus downrun 3x but 3rd time end at the A#
by strumming it several times...

Then play Pre-Chorus 2x, Pre-Chorus downrun 4x, Chorus 4x with
adding after 4th time...

After that comes the piano part...I don't play any piano so im sorry i can't figure it out...

Any corrections leave commented
Tap to rate this tab
 
# A B C D E F G H I J K L M N O P Q R S T U V W X Y Z