Song name
# A B C D E F G H I J K L M N O P Q R S T U V W X Y Z

Bracket - Warrens Song Part 8 tab

the bags underneath...
e|---------------------------------------------------------------------------|
B|--------------10-----10----------------------------------------------------|
G|--6-----------10-----11-------6--------------------------------------------|
D|--7-----------10-----11-------7--------------------------------------------|
A|--7-----------7------9--------7--------------------------------------------|
E|--5---------------------------5--------------------------------------------|

where were you when...
e|---------------------------------------------------------------------------|
B|--6----------------------------9-------------------------------------------|
G|--7---------1----------6-------9-------------------------------------------|
D|--7---------2----------7-------9-------------------------------------------|
A|--5---------2----------7-------7-------------------------------------------|
E|------------0----------5---------------------------------------------------|

you sucked colors from....
e|---------------------------------------------------------------------------|
B|--------------10-----10----------------------------------------------------|
G|--6-----------10-----11-------6--------------------------------------------|
D|--7-----------10-----11-------7--------------------------------------------|
A|--7-----------7------9--------7--------------------------------------------|
E|--5---------------------------5--------------------------------------------|

dont come crawling back when...
e|---------------------------------------------------------------------------|
B|--6----------------------------9-------------------------------------------|
G|--7---------1----------6-------9-------------------------------------------|
D|--7---------2----------7-------9-------------------------------------------|
A|--5---------2----------7-------7-------------------------------------------|
E|------------0----------5---------------------------------------------------|

just tell me what you see....
e|---------------------------------------------------------------------------|
B|--------------10-----10----------------------------------------------------|
G|--6-----------10-----11-------6--------------------------------------------|
D|--7-----------10-----11-------7--------------------------------------------|
A|--7-----------7------9--------7--------------------------------------------|
E|--5---------------------------5--------------------------------------------|

i'm sure there's somethin that...
e|---------------------------------------------------------------------------|
B|--6----------------------------9-------------------------------------------|
G|--7---------1----------6-------9---------6---------------------------------|
D|--7---------2----------7-------9---------7---------------------------------|
A|--5---------2----------7-------7---------7---------------------------------|
E|------------0----------5-----------------5---------------------------------|

one of my VERY favorite songs
30 seconds long or so.
GREAT BAND!!!
i guess that's all...

love,
3chord kyle of i forget www.myspace.com/iforgetsuck
Tap to rate this tab
# A B C D E F G H I J K L M N O P Q R S T U V W X Y Z