Song name
# A B C D E F G H I J K L M N O P Q R S T U V W X Y Z

Bracket - Trailer Park tab

i cant expect to leave a...  all my
e|---------------------------------------------------------------------------|
B|---------------------------------------------------------------------------|
G|----------6666------8--10-5--6---------------------------------------------|
D|---6666---6666---6--8--10-5--6---------------------------------------------|
A|---6666---4444---6--6--8--3--4---------------------------------------------|
E|---4444----------4---------------------------------------------------------|
life.. a father who...
e|---------------------------------------------------------------------------|
B|---------------------------------------------------------------------------|
G|---666----------8888-------------------------------------------------------|
D|---666---8888---8888-------------------------------------------------------|
A|---444---8888---6666-------------------------------------------------------|
E|---------6666--------------------------------------------------------------|
everyone makes fun of my... 
e|---------------------------------------------------------------------------|
B|---------------------------------------------------------------------------|
G|----------6666------------8--6---------------------------------------------|
D|---6666---6666---6--5--3--8--6---------------------------------------------|
A|---6666---4444---6--5--3--6--4---------------------------------------------|
E|---4444----------4--3--1---------------------------------------------------|
family.. laugh at my misfortune...
e|---------------------------------------------------------------------------|
B|---------------------------------------------------------------------------|
G|---666----------8888-------------------------------------------------------|
D|---666---8888---8888-------------------------------------------------------|
A|---444---8888---6666-------------------------------------------------------|
E|---------6666--------------------------------------------------------------|
i cant ever leave....
e|---------------------------------------------------------------------------|
B|---------------------------------------------------------------------------|
G|---66666666---33333333-----------------------------------------------------|
D|---66666666---33333333-----------------------------------------------------|
A|---44444444---11111111-----------------------------------------------------|
E|---------------------------------------------------------------------------|
(riff thingy)
e|---------------------------------------------------------------------------|
B|---------------------------------------------------------------------------|
G|--------55--------6-5------------------------------------------------------|
D|---66---55---22---6-5------------------------------------------------------|
A|---66---33---22---4-3------------------------------------------------------|
E|---44--------00------------------------------------------------------------|
it's not safe to go......
e|---------------------------------------------------------------------------|
B|---------------------------------------------------------------------------|
G|---66666666---33333333-----------------------------------------------------|
D|---66666666---33333333-----------------------------------------------------|
A|---44444444---11111111-----------------------------------------------------|
E|---------------------------------------------------------------------------|

(riff thingy)
e|---------------------------------------------------------------------------|
B|---------------------------------------------------------------------------|
G|--------55--------6-5------------------------------------------------------|
D|---66---55---22---6-5------------------------------------------------------|
A|---66---33---22---4-3------------------------------------------------------|
E|---44--------00------------------------------------------------------------|

(song ends on an E5)

i'm very sorry i couldnt figure out the bridge.
the bridge is really cool though....
oh well, if someone really wanted the bridge, they'da
tabbed it out 10 years ago.  so here it is.
great song from a great band.  bracket.

love,
3chord kyle of i forget www.myspace.com/iforgetsuck
Tap to rate this tab
# A B C D E F G H I J K L M N O P Q R S T U V W X Y Z