Song name
# A B C D E F G H I J K L M N O P Q R S T U V W X Y Z

Bracket - Warrens Song Part 26 tab

the sunlight fills the sky....
e|---------------------------------------------------------------------------|
B|---------------------------------------------------------------------------|
G|------------------8--------8-----------------------------0--3b-------------|
D|----10-9---7--6---8--6--8--8------------------------0--3-------------------|
A|----10-9---7--6---6--6--8--6----------------------2------------------------|
E|----8--7---5--4------4--6-----------------------3--------------------------|

i live by your design..
e|---------------------------------------------------------------------------|
B|---------------------------------------------------------------------------|
G|------------------8--------8-----------------------------------------------|
D|----10-9---7--6---8--6--8--8----5------------------------------------------|
A|----10-9---7--6---6--6--8--6----5------------------------------------------|
E|----8--7---5--4------4--6-------3------------------------------------------|

i dont think that much....
e|---------------------------------------------------------------------------|
B|---------------------------------------------------------------------------|
G|-------8-------8---------8-------------------------------------------------|
D|---6---8---6---8-5---6---8--8--8---10--------------------------------------|
A|---6---6---6---6-5---6---6--8--8---10--------------------------------------|
E|---4-------4-----3---4------6--7---8---------------------------------------|

some day.  but....
e|---------------------------------------------------------------------------|
B|---------------------------------------------------------------------------|
G|--------------8-------------------0-3b-------------------------------------|
D|--3---6---8---8-------------0--3-------------------------------------------|
A|--3---6---8---6----------2-------------------------------------------------|
E|--1---4---6------------3---------------------------------------------------|

i am slightly diseased...
e|---------------------------------------------------------------------------|
B|---------------------------------------------------------------------------|
G|------------------8--------8-----------------------------0--3b-------------|
D|----10-9---7--6---8--6--8--8------------------------0--3-------------------|
A|----10-9---7--6---6--6--8--6----------------------2------------------------|
E|----8--7---5--4------4--6-----------------------3--------------------------|

someday i hope you'll see...
e|---------------------------------------------------------------------------|
B|---------------------------------------------------------------------------|
G|------------------8--------8-----------------------------------------------|
D|----10-9---7--6---8--6--8--8----5------------------------------------------|
A|----10-9---7--6---6--6--8--6----5------------------------------------------|
E|----8--7---5--4------4--6-------3------------------------------------------|

i dont think that much....
e|---------------------------------------------------------------------------|
B|---------------------------------------------------------------------------|
G|-------8-------8---------8-------------------------------------------------|
D|---6---8---6---8-5---6---8--8--8---10--------------------------------------|
A|---6---6---6---6-5---6---6--8--8---10--------------------------------------|
E|---4-------4-----3---4------6--7---8---------------------------------------|
some day.  but....
e|---------------------------------------------------------------------------|
B|---------------------------------------------------------------------------|
G|--------------8------------------------------------------------------------|
D|--3---6---8---8--------5555------------------------------------------------|
A|--3---6---8---6--------5555------------------------------------------------|
E|--1---4---6------------3333------------------------------------------------|

everybody needs a reason...
e|---------------------------------------------------------------------------|
B|---------------------------------------------------------------------------|
G|-------8-------------------------------------------------------------------|
D|---6---8---5----3----------------------------------------------------------|
A|---6---6---5----3----------------------------------------------------------|
E|---4-------3----1----------------------------------------------------------|

you're the only one..
e|---------------------------------------------------------------------------|
B|---------------------------------------------------------------------------|
G|-------8-------------------------------------------------------------------|
D|---6---8---5----3----------------------------------------------------------|
A|---6---6---5----3----------------------------------------------------------|
E|---4-------3----1----------------------------------------------------------|

then there's the solo... that i cannot manage to do at all....  then the outro that goes 
this:

i dont think that much....
e|---------------------------------------------------------------------------|
B|---------------------------------------------------------------------------|
G|-------8-------8---------8-------------------------------------------------|
D|---6---8---6---8-5---6---8--8--8---10--------------------------------------|
A|---6---6---6---6-5---6---6--8--8---10--------------------------------------|
E|---4-------4-----3---4------6--7---8---------------------------------------|
some day.  but....
e|---------------------------------------------------------------------------|
B|---------------------------------------------------------------------------|
G|--------------8-----------------8------------------------------------------|
D|--3---6---8---8--------5--6--8--8--------and repeat till song is over------|
A|--3---6---8---6--------5--6--8--6------------------------------------------|
E|--1---4---6------------3--4--6---------------------------------------------|

i am OFFICIALLY the first person to tab a song from "requiem" which, let me tell you, is 
awesome album.  this is the last part of warren's songs.  #26.  i guess that's all.
love,
3 chord kyle of i forget
www.myspace.com/iforgetsuck
Tap to rate this tab
# A B C D E F G H I J K L M N O P Q R S T U V W X Y Z