Song name
# A B C D E F G H I J K L M N O P Q R S T U V W X Y Z

Brad Paisley - World tab

The World - Brad Paisley

Tabbed by: Alexz Stewart

I noticed there weren't any solo versions out there.
So I figured, I'd ship this out.

Have gun!!
----------------------------------------------------------------------------
bh= bend and hold         rp= release bend and pull-off

pb= pre-bend              r = release

; = sliding back and forth moving up neck.
----------------------------------------------------------------------------


E-7---8---9---10--|
B-10b-11b-12b-13b-|
G-----------------|
D-----------------|
A-----------------|
E-----------------|

  E                                                 B

E---------------------------------------------------11-x-9--x-16-14-----|
B---------------------------------------------------12-x-10-x-12----17b-|
G-----------------------------------------------------------------------|
D-----------------------------------------------------------------------|
A-----------------------------------------------------------------------|
E-0h11b-12-12-12-12-12---0h11b-12-12-12-12-12---------------------------|

  C#m                                         A

E-9-----9-------------------------------------------------------------------|
B---12bh--12r-9-------------------------------------------2-----------------|
G---------------11h12p11-9---------------------------2-4bh--4rp2p0-----2----|
D--------------------------11p10-9------------------2--------------2h4------|
A----------------------------------11-10-9\7-----2h4------------------------|
E---------------------------------------------4/5---------------------------|

  E                   B                             C#m                   A

E---------------------------------------------------7---7--------------------|
B-----------------------------------3/4-4h5/6-6/7-----7b-r-7;----------------|
G-------------------------4/6-4h6-4-3/4-4h6/7-7/8----------9;14b-14-14r---14-|
D-----------0------0--3/4-4/6-4---4------------------------------------14----|
A---------------------1/2----------------------------------------------------|
E-3b-0--0h3b---0h3b----------------------------------------------------------|

E----------------------------|
B----------------------------|
G-14-14p12-----14p12--14p12--|
D---------14--------14----14-|
A----------------------------|
E----------------------------|


Good luck!!
Tap to rate this tab
# A B C D E F G H I J K L M N O P Q R S T U V W X Y Z